Song name
# A B C D E F G H I J K L M N O P Q R S T U V W X Y Z

My Chemical Romance - Na Na Na tab

my first tab


--------------------------------------|
--------------------------------------|
13-13-11-13-13-11-13-13-11-13---------|
-------------------------------9------|
11-11-9--11-11-9--11-11-9--11----11-9-|
--------------------------------------|

--------------------------------------|
--------------------------------------|
8-8-6-8-8-6-8-8-6-8-------------------|
---------------------4----------------|
6-6-4-6-6-4-6-6-4-6----6-4------------|
--------------------------------------|

-----------------------------------------------------|
-----------------------------------------------------|
----------------11-11-9-11-11-13-13-11-13-11-888888--|
11-11-9-11-11-9------------------------------888888--|
----------------9--9--7-9--9--11-11-9--11-9--666666--|
9--9--7-9--9--7--------------------------------------|
Tap to rate this tab
 
# A B C D E F G H I J K L M N O P Q R S T U V W X Y Z