My Chemical Romance - Bulletproof Heart tab

Intro: Synths playing the chords of the chorus

Gravity don't mean too much to me
I'm who I've got to be
These pigs are after me, after you
Run away like it was yesterday
And we could run away,
Run away from here

BLAM:
|---------------------------------------|
|---------------------------------------|
|-----------6-4-4-4-4-4-6-6-------------|
|-4-4-4-4-4-6-4-4-4-4-4-6-6-------------|
|-4-4-4-4-4-4-2-2-2-2-2/4-4-------------|
|-2-2-2-2-2-----------------------------| x2

|-----------------------------------------|
|-----------------------------------------|
|-8-8-8-8-8-6-4-4-4-4-4-6-6---------------|
|-8-8-8-8-8-6-4-4-4-4-4-6-6-4-4-4-4-4-3-4-|
|-6-6-6-6-6/4/2-2-2-2-2/4-4-4-4-4-4-4-3-4-|
|---------------------------2-2-2-2-2-1-2-|

Verse 1

                     F#
I gotta bulletproof heart

	    B	       C#
You gotta hollow point smile

                      D#
We had our run away scarves,

                   B           C#           F#/F/F#
Got a photograph dream on the getaway mile.


Same for next verse:

Let's blow a hole in this town
And do our talking with the laser beam.
Coming out of this place
In a bullet's embrace
Then we'll do it again.


If you have the prechorus, feel free to post it or send it to me. Just screw around with 
main chords and the lead line:

|-----------------------------------------|
|-----------------------------------------|
|-------7-6-4-6-7-------------------------|
|-----------------------------------------|
|-----------------------------------------|
|-----------------------------------------|

Chorus:

F#                      D#
Gravity don't mean too much to me

              F#
I'm who I've got to be

                G#        F
These pigs are after me, after you

D#                       F#
Run away like it was yesterday

        F# (Lower octave)
And we could runaway

              B	        C#            (Begin main riff again)
And we could run away, run away from here

This is just a headstart, I just thought I'd post this since no one else had a better 
Thanks.
Tap to rate this tab
 
# A B C D E F G H I J K L M N O P Q R S T U V W X Y Z