Song name
# A B C D E F G H I J K L M N O P Q R S T U V W X Y Z

My Chemical Romance - Bulletproof Heart tab

			     Bulletproof Heart Ė My Chemical Romance
-------------------------------------------------------------------------------
Tabbed by:
Email:

Tuning:Standard
Guitar 1 Intro: Keep playingÖ
e|---------------------------------------------------------------------------|
B|--7---7---7---7---7---7---7---7---7---7---7---7---7---7---7----------------|
G|----6---6---6---6---6---6---6---6---6---6---6---6---6---6------------------|
D|---------------------------------------------------------------------------|
A|---------------------------------------------------------------------------|
E|---------------------------------------------------------------------------|

Both Guitars, pre-verse:
e|---------------------------------------------------------------------------|
B|---------------------------------------------------------------------------|
G|-------6-44444-666-------6-44444-666-88888-6-44444-666---------------------|
D|-44444-6-44444-666-44444-6-44444-666-88888-6-44444-666-44444-3-4-----------|
A|-44444-4-22222-444-44444-4-22222-444-66666-4-22222-444-44444-3-4-----------|
E|-22222-------------22222-------------------------------22222-1-2-----------|

Guitar 1 Verse:
e|------------------------------------------------------|
B|----7--7--7--7--7--7--7-6-7---------------------------|
G|--6--6--6--6--4--4--6---------------------------------|
D|------------------------------------------------------|
A|------------------------------------------------------|
E|------------------------------------------------------|x4

Guitar 2 Verse will be the pre-verse but palm-muted

Both Guitars, verse part 2:
e|---------------------------------------------------------------------------|
B|---------------------------------------------------------------------------|
G|----------44444-666----------44444-666-88888888-44444-666------------------|
D|-44444444-44444-666-44444444-44444-666-88888888-44444-666-44444-3-4--------|
A|-44444444-22222-444-44444444-22222-444-66666666-22222-444-44444-3-4-3------|
E|-22222222-----------22222222------------------------------22222-1-2--------|

Guitar 1 Pre-chorus: VERY UNSURE!!! I canít figure the power chords here.
e|---------------------------------------------------------------------------|
B|---------------------------------------------------------------------------|
G|-888888888888-10101010-111111111111111111111111-10101010-88888888888888888-|
D|-888888888888-10101010-111111111111111111111111-10101010-88888888888888888-|
A|-666666666666-8-8-8-8ó-9-9-9-9-9-9-9-9-9-9-9-9--8-8-8-8--66666666666666666-|
E|---------------------------------------------------------------------------|

Guitar 2 Pre Chorus: ??? I donít know
e|---------------------------------------------------------------------------|
B|---------------------------------------------------------------------------|
G|---------------------------------------------------------------------------|
D|---------------------------------------------------------------------------|
A|---------------------------------------------------------------------------|
E|---------------------------------------------------------------------------|

Guitar 3 Pre-Chorus:
e|--------------------|
B|--7-6---------------|
G|------6/8-----------|
D|--------------------|
A|--------------------|
E|--------------------|x3

Then Both Guitars: Palm-Muted!
e|---------------------------------------------------------------------------|
B|---------------------------------------------------------------------------|
G|-44444444-66666666---------------------------------------------------------|
D|-44444444-66666666---------------------------------------------------------|
A|-22222222-44444444---------------------------------------------------------|
E|---------------------------------------------------------------------------|
P.M.................

Both Guitars, Chorus: Again, Iím sorry I canít get this part. Very unsure.
e|---------------------------------------------------------------------------|
B|---------------------------------------------------------------------------|
G|-----------------------------------------------------66666666-77777777-----|
D|-444444444444-4444-8888888888888888-9999999999999999-66666666-77777777-----|
A|-444444444444-4444-8888888888888888-9999999999999999-44444444-44444444-----|
E|-222222222222-1111-6666666666666666-7777777777777777-----------------------|x2

Guitar 3: Distortion
e|---------------------------------------------------------------------------|
B|-----7---7---7---7---7---7---7---7---7---7---7---7---7---7-----------------|
G|----6---6---6---6---6---6---6---6---6---6---6---6---6---6------------------|
D|---------------------------------------------------------------------------|
A|---------------------------------------------------------------------------|
E|---------------------------------------------------------------------------|


Guitar 1 Solo:
e|--------------------------------------16br-14h16p14-13h14p13----19br----------|
B|-------------------7----------------------------------------14------18h19p18v-|
G|-----12--11--10--6------------------------------------------------------------|
D|-1212--11--10--9-------10bvr--9-11-4------------------------------------------|
A|------------------------------------------------------------------------------|
E|------------------------------------------------------------------------------|
P.M...   .   .   .

e|---------------------------------------------------------------------------|
B|-19p18p16----------------------------------------21br-21-16-19-19v---------|
G|---------18-20p18p16---16p15p13--------------------------------------------|
D|--------------------20---------16-18p16p15--16-----------------------------|
A|------------------------------------------16-------------------------------|
E|---------------------------------------------------------------------------|


Thatís all I can do, Iím sorry itís incomplete. This is my first tab. Do feel free to 
suggestions coz there is just too much uncertainty in this tab. Thanks and enjoy! :D


************************************

| /   slide up
| \   slide down
| h   hammer-on
| p   pull-off
| ~   vibrato
| +   harmonic
| x   Mute note
| b   Bend
| pb  Pre-bend
| br  Bend release
| pbr Pre-bend release
| brb Bend release bend

************************************
Tap to rate this tab
 
# A B C D E F G H I J K L M N O P Q R S T U V W X Y Z