My Chemical Romance - Save Yourself Ill Hold Them Back tab

I tried to put this up a while ago, it didn't work. So here it is again :)
Standard tuning EADGBe

|----7--------------------------------------------------|
|----8----7----7h8------------------3-------------------|
|----9-----7---7h9---------------4---4-----5------------|
|----9------9--7h9-9--------5--------------5--5-4-------|
|----7-------------7--9-8-7-5-------------5-------5-5/7-|
|--0----0-------------7-6-5-3--3--------3---------------|

|--7---------------------------------------------------|
|--8-----7----7h8------------------3-------------------|
|--9------7---7h9---------------4---4-----5------------|
|--9-------9--7h9-9--------5--------------5--5-4-------|
|--7--------------7--9-8-7-5-------------5-------5-5/7-|
|-0----0-------------7-6-5-3--3--------3---------------|

and it carries on.
I think that's right.
Enjoy !
Tap to rate this tab
 
# A B C D E F G H I J K L M N O P Q R S T U V W X Y Z