Song name
# A B C D E F G H I J K L M N O P Q R S T U V W X Y Z

My Chemical Romance - Sing tab

----------------------------------------------------------------------------
			     SING - My Chemical Romance
----------------------------------------------------------------------------
Tabbed by: SongsAJ
Email: SongsAJ@gmail.com

My guitar version of 'Sing' by My Chemical Romance. There are some guesses here and 
but it is all based on my version as seen here... http://www.youtube.com/watch?v=0A0I3neux6A

Tuning: Standard


Verses - These chords are used throughout each of the verses. You may want to experiment 
the various rhythms

e|---------------------------------------------------------------------------|
B|---------------------------------------------------------------------------|
G|---------------------------------------------------------------------------|
D|--2--2-2---2--2-2---2--2-2---2--2-----7--7-7---7--7-7---7--7-7---7--7-7----|
A|--2--2-2---2--2-2---2--2-2---2--2-----5--5-5---5--5-5---5--5-5---5--5-5----|
E|--0--0-0---0--0-0---0--0-0---0--0------------------------------------------|

e|---------------------------------------------------------------------------|
B|---------------------------------------------------------------------------|
G|---------------------------------------------------------------------------|
D|--6--6-6---6--6-6---6--6-6---6--6-6-----5--5-5---5--5-5---5--5-5---7--7-7--|
A|--4--4-4---4--4-4---4--4-4---4--4-4-----3--3-3---3--3-3---3--3-3---5--5-5--|
E|---------------------------------------------------------------------------|

Choruses - Sustained power chords in the choruses.

e|---------------------------------------------------------------------------|
B|---------------------------------------------------------------------------|
G|--------------------------------------7------------------------------------|
D|---5----------------------------------7------------------------------------|
A|---5----------------------------------5------------------------------------|
E|---3-----------------------------------------------------------------------|

e|---------------------------------------------------------------------------|
B|---------------------------------------------------------------------------|
G|---9----------------------------------9------------------------------------|
D|---9----------------------------------9------------------------------------|
A|---7----------------------------------7------------------------------------|
E|---------------------------------------------------------------------------|

e|---------------------------------------------------------------------------|
B|---------------------------------------------------------------------------|
G|---5-----------------------------------------------------------------------|
D|---5----------------------------------5------------------------------------|
A|---3----------------------------------5------------------------------------|
E|--------------------------------------3------------------------------------|

e|---------------------------------------------------------------------------|
B|---------------------------------------------------------------------------|
G|---7----------------------------------7---------------8--------------------|
D|---7----------------------------------7---------------8--------------------|
A|---5----------------------------------5---------------6--------------------|
E|---------------------------------------------------------------------------|

e|---------------------------------------------------------------------------|
B|---------------------------------------------------------------------------|
G|---9----------------------------------5------------------------------------|
D|---9----------------------------------5------------------------------------|
A|---7----------------------------------3------------------------------------|
E|---------------------------------------------------------------------------|

e|---------------------------------------------------------------------------|
B|---------------------------------------------------------------------------|
G|--------------------------------------7------------------------------------|
D|---5----------------------------------7------------------------------------|
A|---5----------------------------------5------------------------------------|
E|---3-----------------------------------------------------------------------|

e|---------------------------------------------------------------------------|
B|---------------------------------------------------------------------------|
G|--------------------------------------7------------------------------------|
D|---7----------------------------------7------------------------------------|
A|---7----------------------------------5------------------------------------|
E|---5-----------------------------------------------------------------------|

e|---------------------------------------------------------------------------|
B|---------------------------------------------------------------------------|
G|---------------------------------------------------------------------------|
D|---2-----------------------------------------------------------------------|
A|---2-----------------------------------------------------------------------|
E|---0-----------------------------------------------------------------------|

Bridge - Comes after the second chorus, the little riff. Make it sound more 'percussive' 
palm muting.

e|---------------------------------------------------------------------------|
B|---------------------------------------------------------------------------|
G|---------------------------------------------------------------------------|
D|---------------------------------------------------------------------------|
A|-------5--7--5-5--7-------5--7--5--5-7-------------------------------------|
E|---0------------------0----------7-----------------------------------------| This riff 
twice.

e|---------------------------------------------------------------------------|
B|---------------------------------------------------------------------------|
G|---------------------------------------------------------------------------|
D|---------------------------------------------------------------------------|
A|-------5--7--9-8-7---------------------------------------------------------|
E|---0---------7-6-5---------------------------------------------------------| This riff 
afterwards. As many times as you see necessary!

e|---------------------------------------------------------------------------|
B|---------------------------------------------------------------------------|
G|---9-9-9-9-9-9-9-9--11-11-11-11-11-11-11-11--12-12-12-12-12-12-12-12-------|
D|---------------------------------------------------------------------------|
A|---------------------------------------------------------------------------|
E|---------------------------------------------------------------------------|

e|----------------------------------------------------------------------------|
B|----------------------------------------------------------------------------|
G|--14-14-14-14-14-14-14-14--16-16-16-16-16-16-16-16--19-19-19-19-19-19-19-19-|
D|----------------------------------------------------------------------------|
A|----------------------------------------------------------------------------|
E|----------------------------------------------------------------------------|

e|---------------------------17-17-17-17-17-17-17-17--------------------------|
B|----------------------------------------------------------------------------|
G|--21-21-21-21-21-21-21-21---------------------------------------------------|
D|----------------------------------------------------------------------------|
A|----------------------------------------------------------------------------|
E|----------------------------------------------------------------------------|  This 
tremolo run at the end of the bridge to build up to the last chorus.


STRUCTURE -

Intro (don't play)
Verse
Chorus
Verse
Chorus
Bridge
Chorus
Chorus
Outro
Tap to rate this tab
 
# A B C D E F G H I J K L M N O P Q R S T U V W X Y Z