Song name
# A B C D E F G H I J K L M N O P Q R S T U V W X Y Z

My Chemical Romance - Destroya tab

DESTROYA by My Chemical Romance
Intro
Standard Tuning EADGBe
Difficulty: novice

|----------------------------------------------------------------|
|----------------------------------------------------------------|
|----------------------------------------------------------------|
|----------------------------------------------------------------|
|------------------------------------------------------5-7-5-----|
|--5-7-7-7-7-7-5-7-7-7-7-7-5-7-7-7-5-7-7-7-7-7-5-7-7-7-------7-5-|

|------------------------------------------------------------------|
|------------------------------------------------------------------|
|------------------------------------------------------------------|
|------------------------------------------------------------------|
|----------------------------------------------------------x-x-x-x-|
|--5-7-7-7-7-7-5-7-7-7-7-7-5-7-7-7-5-7-7-7-7-7-5-7-7-7-7-7-x-x-x-x-|

|----------------------------------------------------------------|
|----------------------------------------------------------------|
|----------------------------------------------------------------|
|----------------------------------------------------------------|
|------------------------------------------------------5-7-5-----|
|--5-7-7-7-7-7-5-7-7-7-7-7-5-7-7-7-5-7-7-7-7-7-5-7-7-7-------7-5-|

|-------------------------------------------------------------|
|-------------------------------------------------------------|
|-------------------------------------------------------------|
|-------------------------------------------------------------|
|------------------------------------------------------5-7-5~-|
|--5-7-7-7-7-7-5-7-7-7-7-7-5-7-7-7-5-7-7-7-7-7-5-7-7-7--------|

that's the verse riff as well.
i'll put the rest up if i ever figure it out :)
comments/corrections welcome
Tap to rate this tab
 
# A B C D E F G H I J K L M N O P Q R S T U V W X Y Z