My Chemical Romance - Planetary Go tab

                                                Planetary (GO!)



Notes:
In the Main Riff/Chorus - Guitar 1 is what I hear the song as, although when I saw this played live
at the record release, both Frank and Ray appeared to be playing it at the higher G octave that Ive
called Guitar 2... Ha ha I dunno play it how you want.. You know the song, thats why youre here!
Its a bunch of fun! Just go nuts how you want :)


Get up and Go!!!

Main Riff/Chorus:
Guitar 1
e|-------------------------------------------------------------|
B|-------------------------------------------------------------| x2
G|-----------------------------------4---4---4---4---5---5-5-3-|
D|---5---5---5-------5---5---5-----------------------------5-3-|
A|---------------------------------2---2---2---2---3---3---3-1-|
E|-3---3---3---1-3-3---3---3---1-3-----------------------------|

Guitar 2
e|---------------------------------------------------------------------------------------|
B|---------------------------------------------------------------------------------------| x2
G|----12----12----12---------12----12----12---------12----12----12---------12----12------|
D|-------------------10-9-------------------10-9-------------------10-9-------------10-8-|
A|-10----10----10---------10----10----10---------10----10----10---------10----10----10-8-|
E|----------------------------------------------------------------------------------8--6-|

Verse:
Pretty much just Mikey playing the riff, but slam out the:
e|-----|
B|-----| 
G|-5-3-|
D|-5-3-|
A|-3-1-|
E|-----|

Then,

I cant swallow down...
e|-------------------------------------------------------------------------|
B|-------------------------------------------------------------------------| x2
G|-x-12-x-12-x-151515-x-12-x-12-x-101011-x-12-x-12-x-151515-x-12-x-12------|
D|-x-x-x-x--x-x-x-x--x-x-x-x--x-x-x-x--x-x--x-x--x-x-x-x--x-x--x-x--10-8-|
A|-x-10-x-10-x-131313-x-10-x-10-x-8-8-9--x-10-x-10-x-131313-x-10-x-10-10-8-|
E|--------------------------------------------------------------------8--6-|
(Second time just thrash around a bit and play messier)


Pre-chorus: If my velocity starts to make you sweat...
(Just play power chords if you want)
   Em    C     G     D     Em    C     D#    C
e|-7-----3-----3-----5-----7-----3-----6-----3-|
B|-8-----5-----3-----7-----8-----5-----8-----5-|
G|-9-----5-----4-----7-----9-----5-----8-----5-|
D|-9-----5-----5-----7-----9-----5-----8-----5-|
A|-7-----3-----5-----5-----7-----3-----6-----3-|
E|-------------3-------------------------------|

Main Riff/Chorus
Verse
Pre-chorus
Main Riff/Chorus

Bridge:
(Not much actual Guitar in the Bridge, I usually just palm mute the chords)
   D               Em              C
e|-----------------------------------------------------------------|
B|-----------------------------------------------------------------| x4
G|-----------------------------------------------------------------|
D|-7-7-7-7-7-7-7-7-9-9-9-9-9-9-9-9-5-5-5-5-5-5-5-5-5-5-5-5-5-5-5-5-|
A|-5-5-5-5-5-5-5-5-7-7-7-7-7-7-7-7-3-3-3-3-3-3-3-3-3-3-3-3-3-3-3-3-|
E|-----------------------------------------------------------------|
PM . . . . . . . . . . . . . . . . . . . . . . . . . . . . . . . .

The little bursts of awesome:
e|-15-15-x-15-x-15-15151515-x-15-15-x-15-x-15-15151515-|
B|-15-15-x-15-x-15-15151515-x-15-15-x-15-x-15-15151515-| x4
G|-19-19-x-19-x-19-19191919-x-19-19-x-19-x-19-19191919-|
D|-----------------------------------------------------|
A|-----------------------------------------------------|
E|-----------------------------------------------------|
(Im not good at tabbing out rhythm, but you know how its played) 

Then,

Main Riff/Chorus

The melody going in the end:
e|--------------------------------------------------------------|
B|--------------------------------------------------------------| x4
G|-17---------16------------------14--17---------16-------------|
D|-----------------------------17--------------------------17---|
A|--------------------------------------------------------------|
E|--------------------------------------------------------------|

Then just go crazy and

GO HOME!

:) 

Hope you like (At least until someone does a totally awesome one ha ha) :)

Thanks

- Michael Basaranowicz



(Corrections/comments and whatnot at michael_92gretsch@hotmail.com)
Tap to rate this tab
 
# A B C D E F G H I J K L M N O P Q R S T U V W X Y Z