My Chemical Romance - Na Na Na tab

-------------------------------------------------------------------------------
			     Na Na Na-My Chemical Romance
-------------------------------------------------------------------------------
Tabbed by:TheBrainus
Email:

Tuning:Standard

This is the part during the "Everybody wants to change the world" bit, where there 
are high pitched notes being played very fast. Nobody has tabbed this bit yet so I 
thought I would.

e|--16----16----16----16----15----15----15----15-------------|
B|----16----16----16----16----16----16----16----16-----------|
G|------16----16----16----16----16----16----16----16---------|
D|-----------------------------------------------------------|
A|-----------------------------------------------------------|
E|-----------------------------------------------------------|

e|--14----14----14----14----13----13----13----13-------------|
B|----16----16----16----16----14----14----14----14-----------|
G|------15----15----15----15----15----15----15----15---------|
D|-----------------------------------------------------------|
A|-----------------------------------------------------------|
E|-----------------------------------------------------------|

e|--12----12----12----12----14----14----16----16-------------|
B|----14----14----14----14----16----16----16----16-----------|
G|------14----14----14----14----15----15----16----16---------|
D|-----------------------------------------------------------|
A|-----------------------------------------------------------|
E|-----------------------------------------------------------|




************************************

| /   slide up
| \   slide down
| h   hammer-on
| p   pull-off
| ~   vibrato
| +   harmonic
| x   Mute note
| b   Bend
| pb  Pre-bend
| br  Bend release
| pbr Pre-bend release
| brb Bend release bend

************************************
Tap to rate this tab
 
# A B C D E F G H I J K L M N O P Q R S T U V W X Y Z