Song name
# A B C D E F G H I J K L M N O P Q R S T U V W X Y Z

My Chemical Romance - We Dont Need Another Song About California tab

We Don't Need Another Song About California (Intro)
My Chemical Romance
Danger Days: The True Lives Of The Fabulous Killjoys (iTunes special edition)

Email: the_oister@hotmail.com

I'm pretty sure the lead bit is 100% correct, not too sure about the rhythm, feel free 
to use this in your own full song tabs or whatever :)


Guitar 1:

e---0-0-0-0-0-0-0-0--0-0-0-0--0-0-0-0---0--0--0--0--0--0--0--0--0-0-0-0-0-0-0-0---|
B---5-5-5-5-5-5-5-5--7-7-7-7--4-4-4-4--10-10-10-10-10-10-10-10--9-9-9-9-9-9-9-9---|
G---------------------------------------------------------------------------------|
D---------------------------------------------------------------------------------|
A---------------------------------------------------------------------------------|
E---------------------------------------------------------------------------------|

e---0-0-0-0-0-0-0-0--0-0-0-0--0-0-0-0---0--0--0--0--0--0--0--0--0-0-0-0-0-0-0-0---|
B---5-5-5-5-5-5-5-5--7-7-7-7--4-4-4-4--10-10-10-10-10-10-10-12--9-9-9-9-9-9-9-9---|
G---------------------------------------------------------------------------------|
D---------------------------------------------------------------------------------|
A---------------------------------------------------------------------------------|
E---------------------------------------------------------------------------------|

e---0-0-0-0-0-0-0-0--0-0-0-0--0-0-0-0---0--0--0--0--0--0--0--0--0-0-0-0-0-0-0-0---|
B---5-5-5-5-5-5-5-5--7-7-7-7--4-4-4-4--10-10-10-10-10-10-10-10--9-9-9-9-9-9-9-9---|
G---------------------------------------------------------------------------------|
D---------------------------------------------------------------------------------|
A---------------------------------------------------------------------------------|
E---------------------------------------------------------------------------------|

e---0-0-0-0-0-0-0-0--0-0-0-0--0-0-0-0--0-0-0-0-0-0-0-0--0-0-0-0-0-0-0-0---|
B---5-5-5-5-5-5-5-5--7-7-7-7--4-4-4-4--2-2-2-2-2-2-2-4--0-0-0-0-0-0-0-0---|
G-------------------------------------------------------------------------|
D-------------------------------------------------------------------------|
A-------------------------------------------------------------------------|
E-------------------------------------------------------------------------|


Guitar 2 (Not too sure on this):

Come in second time round

e---------------------|
B---------------------|
G---------------------|
D---2~------7~---6~---|
A---2~------7~---7~---|
E---0~------5~---4~---|

e----------------------------------------------------------------------|
B----------------------------------------------------------------------|
G----------------------------------------------------------------------|
D---2-2-2-2-2-2-2-2-1-1-1-1-1-1-1-1--7-7-7-7-7-7-7-7-6-6-6-6-6-6-6-6---|
A---2-2-2-2-2-2-2-2-2-2-2-2-2-2-2-2--7-7-7-7-7-7-7-7-7-7-7-7-7-7-7-7---|
E---0-0-0-0-0-0-0-0-0-0-0-0-0-0-0-0--5-5-5-5-5-5-5-5-4-4-4-4-4-4-4-4---|

e----------------------------------------------------------------------|
B----------------------------------------------------------------------|
G----------------------------------------------------------------------|
D---2-2-2-2-2-2-2-2-1-1-1-1-1-1-1-1--6-6-6-6-6-6-6-6-4-4-4-4-4-4-4-4---|
A---2-2-2-2-2-2-2-2-2-2-2-2-2-2-2-2--4-4-4-4-4-4-4-4-2-2-2-2-2-2-2-2---|
E---0-0-0-0-0-0-0-0-0-0-0-0-0-0-0-0--4-4-4-4-4-4-4-4-2-2-2-2-2-2-2-2---|



There it is, please rate/comment/correct!
Tap to rate this tab
 
# A B C D E F G H I J K L M N O P Q R S T U V W X Y Z