My Chemical Romance - Summertime tab

-------------------------------------------------------------------------------
			     SUMMERTIME - My Chemical Romance
-------------------------------------------------------------------------------
Tabbed by: Drummerrrrr?
Email:

New song off their 4th album!

Tuning: E Standard

Main Riff
e|----------------------------------------------------------------------------------------|
B|----------------------------------------------------------------------------------------|
G|-7-7-7-7-7-7-7/14-14-11-11-11-11-11-11-11-11/12-12-12-12-14-14-11-11-11-11-11-11-6-6-6/-|
D|-0-0-0-0-0-0-0--0--0--0--0--0--0--0--0--0--0--0--0--0--0--0--0--0--0--0--0--0--0-0-0-0--|
A|----------------------------------------------------------------------------------------|
E|----------------------------------------------------------------------------------------|


Solo
e|---------------------------------------------------------------------------|
B|-10-10-10--2--2--10-10-10--2--2/5-5-5-5-5/7-7-7-10--2--0-------------------|
G|---------------------------------------------------------------------------|
D|---------------------------------------------------------------------------|
A|---------------------------------------------------------------------------|
E|---------------------------------------------------------------------------|

e|---------------------------------------------------------------------------|
B|-10-10-10--2--2--10-10-10--2--2/5-5-5-5-5/7-7-7-10-10-10/12----------------|
G|---------------------------------------------------------------------------|
D|---------------------------------------------------------------------------|
A|---------------------------------------------------------------------------|
E|---------------------------------------------------------------------------|

e|-7h9-9b--9-7-7h9-9b-5--12--14--9b--9---------------------------------------|
B|---------------------------------------------------------------------------|
G|---------------------------------------------------------------------------|
D|---------------------------------------------------------------------------|
A|---------------------------------------------------------------------------|
E|---------------------------------------------------------------------------|

e|-7h9-9b--9-7-7h9-9b--9--7--9--10-------------------------------------------|
B|---------------------------------------------------------------------------|
G|---------------------------------------------------------------------------|
D|---------------------------------------------------------------------------|
A|---------------------------------------------------------------------------|
E|---------------------------------------------------------------------------|

Chords
Verse
D A Em G

Chorus
G A D G

Bridge
D C#aug B C#aug

Solo
G A D G
G A Bm
G A D G
G A

Order
Main riff
Verse
Chorus
Verse
Chorus
Bridge
Solo
Main Riff
Chorus
Tap to rate this tab
 
# A B C D E F G H I J K L M N O P Q R S T U V W X Y Z