Song name
# A B C D E F G H I J K L M N O P Q R S T U V W X Y Z

My Chemical Romance - Summertime tab

Summertime, My Chemical Romance.

For novice/intermediate - because I got lazy and didn't do the solo/most of Frank's tab.

The intro tab that I'm about to show you plays during the verses overtop of main chords 
and other basic tab - you know that other stuff I didn't do.

This tab is correct and the chords are correct also, however, if you want to learn how 
to play a song YOU MUST LISTEN TO IT. Don't just go off tab, make sure you get that song 
through your head! Understand the inner workings of it.



Ray's guitar - Guitar 1
Frank's guitar - Guitar 2

Guitar 1-

e|--------------------------------------------------------------------------|
B|------------------10-7--7-7-7-7-7--8-8-8-8-8-10-7--7-7-7------------------|
G|---7-7-7-7-7-7-7------------------------------------------6-6-6-6--6/7--7-|
D|--------------------------------------------------------------------------|
A|--------------------------------------------------------------------------|
E|--------------------------------------------------------------------------|
Guitar 2 -
          D                           A                              Em

e|--------------------------------------------------------------------------|
B|----------10-7--7-7-7-7-7--10-10-10-10-10-10-10-10-(etc. x 15)------------|
G|-7-7-7-7------------------------------------------------------------------|
D|--------------------------------------------------------------------------|
A|--------------------------------------------------------------------------|
E|--------------------------------------------------------------------------|
Guitar 2 -                    G



Here are the (VERY EASY!) chords


VERSE

                    D
When the lights go out
                        A
Will you take me with you?
                           Em
And carry all this broken bone
                           G
Through six years down in crowded rooms

                      D
And highways I call home
                              A
Is something I can't know till now
                              Em
Till you picked me off the ground
                            G
With brick in hand, your lip gloss smile

Your scraped up knees and




CHORUS

(more powerful strumming)

G        A
If you stay
        D             G
I will lead away your mind
G       A               D
  Or until my heart explodes

How long?

G         G        A
Until we find our way
        D              G
In the dark and out of harm
        G            A (hold)
You can run away with me
(hold) Anytime you want


VERSE

**Continue intro tab and verse chord progression (D A Em G)

D                     A
Terrified of what I'd be

As a kid from what I'd seen
                        G
Every single day, when people try
                   D
And put the pieces back together
                    A
Just to smash them down
                            Em
Turn my headphones up real loud
                          G
I don't think I need them now
'Cause you suck the noise out


CHORUS

If you stay
I will lead away your mind
Until my heart explodes
How long?
Until we find our way
In the dark and out of harm
You can run away with me
Anytime you want

Anytime you want
Anytime you want

Don't walk away (x3)

BIG SOLO/INTERLUDE that I couldn't be effed to do

'Cause if you stay
I will lead the way alright
Or until my heart explodes
How long?
Until we find our way
In the dark and out of harm
        G             A
You can run away with me
        D                G
You can write it on your arm
        G             A (hold)
You can run away with me
(hold)

Anytime you want

*continue chords with alternate ending to intro


e|--------------------------------------------------|
B|------------------10-7--7-7-7-7-7--8-8-8-8-8-8-7--|
G|---7-7-7-7-7-7-7----------------------------------|
Tap to rate this tab
 
# A B C D E F G H I J K L M N O P Q R S T U V W X Y Z