Song name
# A B C D E F G H I J K L M N O P Q R S T U V W X Y Z

My Chemical Romance - Bulletproof Heart tab

go easy on me this is my first tab so...here is it

standard tuning:eBGDAE

|----13--13--13--13--13---|
|-----13---13--13--13--13-|
|-------------------------|
|-------------------------|
|-------------------------|
|-------------------------|

...and so on. just work out how many of those you do buy listening to the cd

main riff

|---------------------------------|-------------------------------|
|------------6--------------------|-------------------------------|
|------------6--------------------|----------6-8-8-8-8-10-10-10-10|
|--4-4-4-4-4-4-8-8-8-8-10-10-10-10|--4-4-4-4-6-8-8-8-8-10-10-10-10|
|--4-4-4-4-4---8-8-8-8-10-10-10-10|--4-4-4-4-4-6-6-6-6--8--8--8--8|
|--2-2-2-2-2---6-6-6-6--8--8--8--8|--2-2-2-2----------------------|

|-------------------------------------------------|
|-------------------------------------------------|
|--11-11-11-11-11-8-6-6-6-6-4-4-4-4---------------|
|--11-11-11-11-11-8-6-6-6-6-4-4-4-4-4-4-4-4-4-3-4-|
|--9--9--9--9--9--6-4-4-4-4-2-2-2-2-4-4-4-4-4-3-4-|
|-----------------------------------2-2-2-2-2-1-2-|

end
Tap to rate this tab
 
# A B C D E F G H I J K L M N O P Q R S T U V W X Y Z