Song name
# A B C D E F G H I J K L M N O P Q R S T U V W X Y Z

My Chemical Romance - Sing tab

-------------------------------------------------------------------------------
			     SING - My Chemical Romance
-------------------------------------------------------------------------------
Tabbed by: Tristen Jones
Email: tristen_bjones@yahoo.com
Tuning: Standard

Okay, well I was looking at the other tabs and noticed some flaws and I thought I 
should just do my own :) Let me know if you see something wrong, cheers!

Gtr 1 - Ray Toro
Gtr 2 - Frank Iero

Intro:

Piano:
e|-12-12-12-12-10-10-10-10-9-9-9-9-8-8-10-10-|
B|-x-----------x-----------x-------x---x-----|
G|-9~----------7~----------6~------5~--7~----| Repeats throughout the verse
D|-------------------------------------------|
A|-------------------------------------------|
E|-------------------------------------------|

Verse:

Gtr 1:
e|-12-1212-1212-121212-|      |-12-12-12-121212--|
B|-x--x-x--x-x--x-x-x--|      |-x--x--x--x-x-x---|
G|-9--9-9--9-9--9-9-9--|x3    |-9--9--9--9-9-9---|
D|---------------------|THEN: |------------------|
A|---------------------|      |------------------|
E|---------------------|      |------------------|
Do this altogether twice.

Gtr 2(Not 100% Sure on this.):
e|---------|
B|--5/15---|x3
G|---------|
D|---------|
A|---------|
E|---------|

Chorus:

Gtr 1(Figure out timing for yourself, sorry):
e|-------------------------0~---------------------|
B|----7~-8~--5~----7~---8--0~-5~----7~----7~-8~---|
G|-4~-7~-9~--5~-4~-7~-8-9--0~-5~-4~-7~-6~-7~-9~---|
D|-5~-7~-9~--5~-5~-7~-9-9--2~-5~-5~-7~-7~-7~-9~---|
A|-5~-5~-7~--3~-5~-5~-6-7--2~-3~-5~-5~-7~-5~-7~---|
E|-3~---(0)~----3~---------0~----3~----5~---(0)~--|
These are just the chords, you can hit 'em more than once, pick them, whatever ya 
want, this is just a basis as to what Toro is doing.

Gtr 2:
e|--------------------------------------------------------------------------------------|
B|--------------------------------------------------------------------------------------|
G|-16--14--16\12--11-12-14-17--16--17-16-14--12-11--16--12--17-16--14--12-11/14--12-11--|
D|-x---x---x-\x---x--x--x--x---x---x--x--x---x--x---x---x---x--x---x---x--x/x----x--x---|
A|-14--12--14\10--9--10-12-15--14--15-14-12--10-9---14--10--15-14--12--10-9/1-2--10-9---|
E|--------------------------------------------------------------------------------------|

Post-Chorus:

Gtr 2:
e|-------------------|
B|-------------------|
G|-12---8-7-8-8h9~~--|
D|-------------------|
A|-------------------|
E|-------------------|


**Repeat Verse**
In this verse some guitar (probably overdubbed) plays this:
e|----------------------------------------------|
B|----------------------------------------------|
G|-11b12-11b12rb-9b10rb---11b12-12b14-9--12b14--|
D|----------------------------------------------|
A|----------------------------------------------|
E|----------------------------------------------|

**Repeat Chorus. NOTE: GTR 1 DOES NOT PLAY THE LAST CHORD IN THE 2ND CHORUS. HE 
SKIPS TO THE FIRST NOTE OF THE BRIDGE**

Bridge (Not sure about either part, correct me if I'm wrong):

Gtr 1:
e|-------------------------------------|
B|-------------------------------------|
G|-------------------------------------|
D|-------------------------------------| Repeat until Bridge Solo.
A|---0h5p0-7--0h5p0-7----0h5p0-5-5h7---|
E|-0-------------------0---------------|

Gtr 2(Starts at 2:30):
e|-------------------------------------------|
B|-------------------------------------------|
G|-------------------------------------------|
D|-------------------------------------------| Repeat until Final Chorus.
A|-------------------------------------------|
E|-0-0h10p0-12--0h10p0-12-0-0h10p0-10-10h12--|

Bridge Solo:

Gtr 1 (Starts at 2:48): Note that this is what Toro plays live.
e|------------------12~~--12~--------------------------15b17rb15-12-12-15-17\--|
B|----------------------------------12~--15b17rb-12-12---------------(Tremolo)-|
G|-9~~-11~~-12~~-14b16-14b16-16rb14--------------------------------------------|
D|-----------------------------------------------------------------------------|
A|-----------------------------------------------------------------------------|
E|-----------------------------------------------------------------------------|

Final Chorus:

Gtr 1(This is what he does live):
e|-15~(x3)-17~(x3)-19~(x6)-17-17h19p17-15h17p15-15~(x6)-17b19-15-14b15rb-12\10------10h12--|
B|-----------------------------------------------------------------------------12/15-------|
G|-----------------------------------------------------------------------------------------|
D|-----------------------------------------------------------------------------------------|
A|-----------------------------------------------------------------------------------------|
E|-----------------------------------------------------------------------------------------|

e|-12~(x6)--------------------------------------------------14b15rb-12-10-10h12-12~(x7)--|
B|---------12-15b17-pb17prb15----15------15----------------------------------------------|
G|----------------------------14b16rb-12----11h12p11-9~(x5)------------------------------|
D|---------------------------------------------------------------------------------------|
A|---------------------------------------------------------------------------------------|
E|---------------------------------------------------------------------------------------|

e|-14b15rb-12/10------------------------------------------------------------|
B|---------------10-10h12-15-15b17rb-12---------15----15--------------------|
G|--------------------------------------14b16rb----12----11-11h12p11-9~~~~--|
D|--------------------------------------------------------------------------|
A|--------------------------------------------------------------------------|
E|--------------------------------------------------------------------------|

Gtr 2:
e|-2~-3~-0~-0~-2~-3~----0~-0~-1~-3~----3~-0~----3~-0~----3~-0~----|
B|-0~-2~-0~-1~-0~-2~-4~-0~-1~-0~-2~----2~-0~----2~-0~----2~-0~----|
G|-0~-3~-0~-0~-0~-3~-4~-0~-0~-0~-3~-2~-3~-0~-2~-3~-0~-2~-3~-0~----|
D|-0~-0~-2~-2~-0~-0~-1~-2~-2~-0~-0~-2~-0~-2~-2~-0~-2~-2~-0~-2~----|
A|-2~----2~-3~-2~-------2~-3~-2~----0~----2~-0~----2~-0~----2~----|
E|-3~----0~----3~-------0~----3~----------0~-------0~-------0~----|

Outro:

Piano:
e|-12-12-12-12-10-10-10-10-9-9-9-9-8-8-10-10--12-12-12-12-10-10-10-10-9-9-9-9-8-8-10-10-----|
B|-x-----------x-----------x-------x---x------x-----------x-----------x-------x---x---------|
G|-9~----------7~----------6~------5~--7~-----9~----------7~----------6~------5~--7~--------|
D|------------------------------------------------------------------------------------------|
A|------------------------------------------------------------------------------------------|
E|---------------------------------------------------------------------------------------0~-|


************************************

| /   slide up
| \   slide down
| h   hammer-on
| p   pull-off
| ~   vibrato
| +   harmonic
| x   Mute note
| b   Bend
| pb  Pre-bend
| br  Bend release
| pbr Pre-bend release
| brb Bend release bend

************************************
Tap to rate this tab
 
# A B C D E F G H I J K L M N O P Q R S T U V W X Y Z