Song name
# A B C D E F G H I J K L M N O P Q R S T U V W X Y Z

My Chemical Romance - Summertime tab

So this is my attempt on the solo for this wonderful song! 

I can't say it's a 100 percent right, since only Ray or Frank (don't know who 
plays it) knows that, but when i play along with the song it sounds AWESOME!

Legend
L - tied note
x - dead note
h - hammer on/pull off
b - bend
s - slide
~ - vibrato
g - ghost note
> - accentuated note
t - trill
M - palm mute
. - staccato
P - popping (bass)
S - slapping (bass)
+ - tapping
W - wide vibrato
< - fade in
w - whammy bar
= - tremolo picking
v - brush up
^ - brush down
V - pick stroke up
n - pick stroke down


E |----------------------------|
B |----------------------------|
G |-----------------14-14-14---|
D |----------------------------|
A |----------------------------|
E |----------------------------|


----------------------------|----------------------------|
----------------------------|----------------------------|
--14s---7--7-----14-14-14---|--14s---6--6-----9--9--9----|
----------------------------|----------------------------|
----------------------------|----------------------------|
----------------------------|----------------------------|


----------------------------|----------------------------|
----------------------------|----------------------------|
--9s-11-11s14s---6-----4L---|--4L----------4--14-14-14---|
----------------------------|----------------------------|
----------------------------|----------------------------|
----------------------------|----------------------------|


----------------------------|----------------------------|
----------------------------|----------------------------|
--14s---7--7-----14-14-14---|--14s---6--6-----9--9--9----|
----------------------------|----------------------------|
----------------------------|----------------------------|
----------------------------|----------------------------|


----------------------------|----------------------------|
----------------------------|-----------------14-14-14---|
--9s-11----11----14----16L--|--16L---------16------------|
----------------------------|----------------------------|
----------------------------|----------------------------|
----------------------------|----------------------------|


----------------------------|-----------------12-12-12---|
--14b------12----14-14-14---|--14b-----------------------|
----------------------------|-----------14---------------|
----------------------------|----------------------------|
----------------------------|----------------------------|
----------------------------|----------------------------|


--12s14-14-14---------------|----------------------------|
-----------------14----12L--|--12L---------12-14-14-14---|
----------------------------|----------------------------|
----------------------------|----------------------------|
----------------------------|----------------------------|
----------------------------|----------------------------|


----------------------------|----------------------------|-------||
--14b------------14-14-14---|--14b------12----14----15L--|--15---||
-----------14---------------|----------------------------|-------||
----------------------------|----------------------------|-------||
----------------------------|----------------------------|-------||
----------------------------|----------------------------|-------||
Tap to rate this tab
 
# A B C D E F G H I J K L M N O P Q R S T U V W X Y Z