Song name
# A B C D E F G H I J K L M N O P Q R S T U V W X Y Z

My Chemical Romance - Summertime tab

                                 Summertime
                          By My Chemical Romance
                Danger Days: The True Lives Of Fabulous Killjoys
                                 Track: 11
----------------------------------------------------------------------------
Tabbed By: Archville16

Tuning Standard: E Standard

Intro
------

Guitar 1:
D5 (Palm Mute)

Guitar 2:

e|------------------------------------------------------------------------------------|
b|------------------------------------------------------------------------------------|
g|-7-7-7-7-7-7-7/14-14-11-11-11-11-11-11-11/12-12-12-12-14-14-11-11-11-11-11-11-6-6-6-|
d|-0-0-0-0-0-0-0--0--0--0--0--0--0--0--0--0--0--0--0--0--0--0--0--0--0--0--0--0-0-0-0-|
a|------------------------------------------------------------------------------------|
e|------------------------------------------------------------------------------------|



e|----------------------------------------------------------------------------------|
b|----------------------------------------------------------------------------------|
g|-7-7-7-7-7-7/14-14-11-11-11-11-11-11-11/12-12-12-12-14-14-14-14-14-14-14-14-14-14-|
d|-0-0-0-0-0-0--0--0--0--0--0--0--0--0--0--0--0--0--0--0--0--0--0--0--0--0--0--0--0-|
a|----------------------------------------------------------------------------------|
e|----------------------------------------------------------------------------------|


Verse
------
(In Power Chords)-(Bm+Em stay normal)

G                   D
When the lights go out
D
Will you take me with you?

A                          Em
And carry all this broken bone

 Em                           G
Through six years down in crowded rooms

G                     D
And highways I call home

D                              A
Is something I cant know till now

A                             Em
Till you picked me off the ground

Em                          G
With brick in hand, your lip gloss smile

        A
Your scraped-up kness and


Chorus
-------

(In power chords)- (Bm+Em stay normal)

G        A
If you stay

         D             G
I would even wait all night

G      A              Bm
Or until my heart explodes

Bm
How long? until we

G         A          D               G
Find our way in the dark and out of harm

         G            A                       D
You can run away with me... anytime you want



Verse II
---------

(In power chords) - (Bm+Em stay normal)

D                      A
Terrified of what I'd be

A                         Em
As a kid from what I've seen

Em                       G
Every single day when people try

G                    D
And put the pieces back together

D                   A
Just to smash them down

A                            Em
Turn my headphones up real loud

Em                          G
I don't think I need them now

           A
Cause you stop the noise out


CHORUS- Same chords
--------------------

A             D
Anytime you want

A             D
Anytime you want



Intro to solo
-------------

e|-10---9---7---9---|
b|----10--10--10--10|
g|------------------|
d|------------------|
a|------------------|
e|------------------|

Solo
----

e|------------------------------------------|
b|-10-10-10-3-3-3-10-10-10-2-2-2-5-7-7-2-0--|
g|------------------------------------------|
d|------------------------------------------|
a|------------------------------------------|
e|------------------------------------------|

e|------------------------------------------|
b|-10-10-10-3-3-3-10-10-10-2-2-2-5-7-7-10-12|
g|------------------------------------------|
d|------------------------------------------|
a|------------------------------------------|
e|------------------------------------------|

e|-7h9-9b-9-7-9-9b-5-12-14-14-17-9-7--------|
b|------------------------------------------|
g|------------------------------------------|
d|------------------------------------------|
a|------------------------------------------|
e|------------------------------------------|

e|7h9-9b-9-7-9-9b-9-7-9-10------------------|
b|------------------------------------------|
g|------------------------------------------|
d|------------------------------------------|
a|------------------------------------------|
e|------------------------------------------|


Final Chorus
-------------

(In Power Chords)- (Bm+Em stay noraml)

D
Don't walk away

D
Don't walk away

D            G
Don't walk away

         A
If you stay

         D             G
I would even wait all night

G      A              Bm
Or until my heart explodes

Bm
How long? until we

G         A          D               G
Find our way in the dark and out of harm

         G            A
You can run away with me

          D               G
You can write it on your arm

         G            A
You can run away with me...

             D
Anytime you want


Few Strums To End of D

END
----
Tap to rate this tab
 
# A B C D E F G H I J K L M N O P Q R S T U V W X Y Z