Song name
# A B C D E F G H I J K L M N O P Q R S T U V W X Y Z

My Chemical Romance - Summertime tab

My Chemical Romance - Summertime
Tabbed by jere1my

Intro part, palm mute

E--------------------------------------------------------------------------|
B--------------10-7-7-7-7-7-7-7--8-8-8-8-8-10-10-7-7-7-7-7/2-2-2-2h3-------|
G-7-7-7-7-7-7-7------------------------------------------------------------|
D--------------------------------------------------------------------------|
A--------------------------------------------------------------------------|
E--------------------------------------------------------------------------|

E-------------------------------------------------------|
B-3-3-3-3-3-10-7-7-7-7-7-7-10-10-10-10-10-10-10-10------|
G-------------------------------------------------------|
D-------------------------------------------------------|
A-------------------------------------------------------|
E-------------------------------------------------------|

Guitar part 0:20 - 0:33

E-------------------------------------------------------------------------|
B---8-7-5---8-7-5-0--8-7-5-10-8-7-5---------------------------------------|
G-7-------6---------------------------------------------------------------|
D-------------------------------------------------------------------------|
A-------------------------------------------------------------------------|
E-------------------------------------------------------------------------|

Verse1 - same thing as intro

Chorus
           stay           even      all night             or un
E-------------------------------------------------------------------------|
B-------------------------------------------------------------------------|
G-4-4-4-4--6-6-6-6-6-6-6--12-12-12--2--4-4-4-4-4--2-2-2--4-4-4-4----------|
D-4-4-4-4--6-6-6-6-6-6-6--12-12-12--2--4-4-4-4-4--2-2-2--4-4-4-4----------|
A-2-2-2-2--4-4-4-4-4-4-4--10-10-10--0--2-2-2-2-2--0-0-0--2-2-2-2----------|
E-------------------------------------------------------------------------|
  til             how long               until we
E-------------------------------------------------------------------------|
B-------------------------------------------------------------------------|
G-6-6-6-6-6-6-6--12-12-12-12/14--11-11-11-11/9-9-9------------------------|
D-6-6-6-6-6-6-6--12-12-12-12/14--11-11-11-11/9-9-9------------------------|
A-4-4-4-4-4-4-4--10-10-10-10/12--9--9--9--9-/7-7-7------------------------|
E-------------------------------------------------------------------------|
  find our way            dark      of harm       you can         me
E-------------------------------------------------------------------------|
B-------------------------------------------------------------------------|
G-4-4-4-4--6-6-6-6-6-6-6--12-12-12--2--4-4-4-4-4--2-2-2--4-4-4-4--6-------|
D-4-4-4-4--6-6-6-6-6-6-6--12-12-12--2--4-4-4-4-4--2-2-2--4-4-4-4--6x8-----|
A-2-2-2-2--4-4-4-4-4-4-4--10-10-10--0--2-2-2-2-2--0-0-0--2-2-2-2--4-------|
E-------------------------------------------------------------------------|

Verse2 - same thing as intro

Chorus x 1

Guitar part before solo x2

E---------------5----------------------------------------------------|
B-5h7-7-7-7-5-7---7-7--5h7-7-7-7-5-----------------------------------|
G--------------------------------------------------------------------|
D--------------------------------------------------------------------|
A--------------------------------------------------------------------|
E--------------------------------------------------------------------|

Guitar solo

E------------------------------------------------------5-------------|
B-10-10-10-10/3-3-3--10-10-10-10-10/2-2-2--5-5-5-5h7-7---------------|
G-------------------------------------------------------6-6/4--------|
D--------------------------------------------------------------------|
A--------------------------------------------------------------------|
E--------------------------------------------------------------------|

E-----------------------------------------------5-7------------------|
B-10-10-10-10/3-3--10-10-10-10/2-2--5-5-5h7-7-7----------------------|
G--------------------------------------------------------------------|
D--------------------------------------------------------------------|
A--------------------------------------------------------------------|
E--------------------------------------------------------------------|

E-7-9-9-9b-7--9-9b----12-12-12-12/14-14-14---------------------------|
B-----------------10----------------------14-14-14-14-14-------------|
G--------------------------------------------------------------------|
D--------------------------------------------------------------------|
A--------------------------------------------------------------------|

E-9-9-9-9b----9-9b--7-9-10-------------------------------------------|
B----------10--------------------------------------------------------|
G--------------------------------------------------------------------|
D--------------------------------------------------------------------|
A--------------------------------------------------------------------|
E--------------------------------------------------------------------|

Chorus x 1

"You can write it on your arm..."

E--------------------------------------------------------------------|
B--------------------------------------------------------------------|
G-12-12-12-12--11-11-11--9-9-9--4-4-4-4--6~--------------------------|
D-12-12-12-12--11-11-11--9-9-9--4-4-4-4--6~--------------------------|
A-10-10-10-10--9--9--9---7-7-7--2-2-2-2--4~--------------------------|
E--------------------------------------------------------------------|

Palm mute

E--------------------------------------------------------------------|
B---------------10-7-7-7-7-7-7-7--10-10-10-10-10-10-10-10------------|
G-7-7-7-7-7-7-7------------------------------------------------------|
D--------------------------------------------------------------------|
A--------------------------------------------------------------------|
E--------------------------------------------------------------------|
Tap to rate this tab
 
# A B C D E F G H I J K L M N O P Q R S T U V W X Y Z