Song name
# A B C D E F G H I J K L M N O P Q R S T U V W X Y Z

My Chemical Romance - Famous Last Words tab

Hey guys, this tab was already made by xperiment_666, I was looking for it and his tab 
was amaziiiing!! But I used his and changed a little cuz I just wanna one guitar cuz was 
a little confusing and now here it is :) don't kill me for that ahah

Famous Last Words by My Chemical Romance tab


Intro

e|---------------------------------|---------------------------------|
B|---------------------------------|---------------------------------|
G|-7-7-----------------------------|---------------------------------|
D|-7-7-7-7-7-7-7-7-7-7-7-7-5-5-5-5-|-------------------------7-7-7-7-|
A|-5-5-5-5-5-5-5-5-5-5-5-5-3-3-3-3-|-8-8-8-8-8-8-8-8-8-8-8-8-8-8-8-8-|
E|---------------------------------|-6-6-6-6-6-6-6-6-6-6-6-6-5-5-5-5-|
PM     . . . . . . . . . . . . . .   . . . . . . . . . . . . . . . .


e|---------------------------------|---------------------------------|
B|---------------------------------|---------------------------------|
G|---------------------------------|---------------------------------|
D|-5-5-5-5-5-5-5-5-----------------|---------------------------------|
A|-5-5-5-5-5-5-5-5-7-7-7-7-7-7-7-7-|-8-8-8-8-8-8-8-8-8-8-8-8-7-7-7-7-|
E|-3-3-3-3-3-3-3-3-5-5-5-5-5-5-5-5-|-6-6-6-6-6-6-6-6-8-8-8-8-8-8-8-8-|
PM . . . . . . . . . . . . . . . .   . . . . . . . . . . . . . . . .

Then,
e|---------------------------------|---------------------------------|
B|---------------------------------|---------------------------------|
G|-7-7-----------------------------|---------------------------------|
D|-7-7-7-7-7-7-7-7-7-7-7-7-5-5-5-5-|-8-8---------------------7-7-7-7-|
A|-5-5-5-5-5-5-5-5-5-5-5-5-3-3-3-3-|-8-8-8-8-8-8-8-8-8-8-8-8-8-8-8-8-|
E|---------------------------------|-6-6-6-6-6-6-6-6-6-6-6-6-5-5-5-5-|
PM     . . . . . . . . . . . . . .       . . . . . . . . . . . . . .


e|---------------------------------|---------------------------------|
B|---------------------------------|---------------------------------|
G|---------------------------------|---------------------------------|
D|-5-5-5-5-5-5-5-5-----------------|-8-8-------------5-5-5-5-5-5-5-5-|
A|-5-5-5-5-5-5-5-5-7-7-7-7-7-7-7-7-|-8-8-8-8-8-8-8-8-3-3-3-3-3-3-3-3-|
E|-3-3-3-3-3-3-3-3-5-5-5-5-5-5-5-5-|-6-6-6-6-6-6-6-6-----------------|
PM     . . . . . . . . . . . . . .       . . . . . . . . . . . . . .


Breakdown:

e|-----------------|------------------|-----------------|-----------------|
B|-----------------|------------------|-----------------|-----------------|
G|-7-7-------------|-7-7--------------|-7-7-------------|-7-7-7-7-7-7-7-7-|
D|-7-7-------3-----|-7-7-------3-5b-3-|-7-7-------3-----|-7-7-7-7-7-7-7-7-|
A|-5-5-5-3-5---5-3-|-5-5-5-3-5--------|-5-5-5-3-5---5-3-|-5-5-5-5-5-5-5-5-|
E|-----------------|------------------|-----------------|-----------------|


Verse

e|---------------------------------|---------------------------------|
B|---------------------------------|---------------------------------|
G|-7-7-7-7-7-7-7-7-7-7-7-7-5-5-5-5-|---------------------------------|
D|-7-7-7-7-7-7-7-7-7-7-7-7-5-5-5-5-|-8-8-8-8-8-8-8-8-8-8-8-8-7-7-7-7-|
A|-5-5-5-5-5-5-5-5-5-5-5-5-3-3-3-3-|-8-8-8-8-8-8-8-8-8-8-8-8-7-7-7-7-|
E|---------------------------------|-6-6-6-6-6-6-6-6-6-6-6-6-5-5-5-5-|

e|---------------------------------|---------------------------------|
B|---------------------------------|---------------------------------|
G|---------------------------------|-----------------5-5-5-5-5-5-5-5-|
D|-5-5-5-5-5-5-5-5-7-7-7-7-7-7-7-7-|-8-8-8-8-8-8-8-8-5-5-5-5-5-5-5-5-|
A|-5-5-5-5-5-5-5-5-7-7-7-7-7-7-7-7-|-8-8-8-8-8-8-8-8-3-3-3-3-3-3-3-3-|
E|-3-3-3-3-3-3-3-3-5-5-5-5-5-5-5-5-|-6-6-6-6-6-6-6-6-----------------|


e|---------------------------------|---------------------------------|
B|---------------------------------|---------------------------------|
G|-7-7-7-7-7-7-7-7-7-7-7-7-5-5-5-5-|---------------------------------|
D|-7-7-7-7-7-7-7-7-7-7-7-7-5-5-5-5-|-8-8-8-8-8-8-8-8-8-8-8-8-7-7-7-7-|
A|-5-5-5-5-5-5-5-5-5-5-5-5-3-3-3-3-|-8-8-8-8-8-8-8-8-8-8-8-8-7-7-7-7-|
E|---------------------------------|-6-6-6-6-6-6-6-6-6-6-6-6-5-5-5-5-|

e|---------------------------------|---------------------------|
B|---------------------------------|---------------------------|
G|---------------------------------|-----------------5-5-5-5-5-|
D|-5-5-5-5-5-5-5-5-7-7-7-7-7-7-7-7-|-8-8-8-8-8-8-8-8-5-5-5-5-5-|
A|-5-5-5-5-5-5-5-5-7-7-7-7-7-7-7-7-|-8-8-8-8-8-8-8-8-3-3-3-3-3-|
E|-3-3-3-3-3-3-3-3-5-5-5-5-5-5-5-5-|-6-6-6-6-6-6-6-6-----------|


Chorus

e|---------------------------------|---------------------------------|
B|---------------------------------|---------------------------------|
G|-1010101010101010101010109-9-9-9-|-7-7-7-7-7-7-7-7-7-7-7-7-5-5-5-5-|
D|-1010101010101010101010109-9-9-9-|-7-7-7-7-7-7-7-7-7-7-7-7-5-5-5-5-|
A|-8-8-8-8-8-8-8-8-8-8-8-8-7-7-7-7-|-5-5-5-5-5-5-5-5-5-5-5-5-3-3-3-3-|
E|---------------------------------|---------------------------------|

e|---------------------------------|---------------------------------|
B|---------------------------------|---------------------------------|
G|-3-3-3-3-3-3-3-3-5-5-5-5-5-5-5-5-|-3-3-3-3-3-3-3-3-5-5-5-5-5-5-5-5-|
D|-3-3-3-3-3-3-3-3-5-5-5-5-5-5-5-5-|-3-3-3-3-3-3-3-3-5-5-5-5-5-5-5-5-|
A|-1-1-1-1-1-1-1-1-3-3-3-3-3-3-3-3-|-1-1-1-1-1-1-1-1-3-3-3-3-3-3-3-3-|
E|---------------------------------|---------------------------------|


Breakdown

e|-----------------|------------------|-----------------|-----------------|
B|-----------------|------------------|-----------------|-----------------|
G|-7-7-------------|-7-7--------------|-7-7-------------|-7-7-7-7-7-7-7-7-|
D|-7-7-------3-----|-7-7-------3-5b-3-|-7-7-------3-----|-7-7-7-7-7-7-7-7-|
A|-5-5-5-3-5---5-3-|-5-5-5-3-5--------|-5-5-5-3-5---5-3-|-5-5-5-5-5-5-5-5-|
E|-----------------|------------------|-----------------|-----------------|


Verse

e|---------------------------------|---------------------------------|
B|---------------------------------|---------------------------------|
G|-7-7-7-7-7-7-7-7-7-7-7-7-5-5-5-5-|---------------------------------|
D|-7-7-7-7-7-7-7-7-7-7-7-7-5-5-5-5-|-8-8-8-8-8-8-8-8-8-8-8-8-7-7-7-7-|
A|-5-5-5-5-5-5-5-5-5-5-5-5-3-3-3-3-|-8-8-8-8-8-8-8-8-8-8-8-8-7-7-7-7-|
E|---------------------------------|-6-6-6-6-6-6-6-6-6-6-6-6-5-5-5-5-|

e|---------------------------------|---------------------------------|
B|---------------------------------|---------------------------------|
G|---------------------------------|-----------------5-5-5-5-5-5-5-5-|
D|-5-5-5-5-5-5-5-5-7-7-7-7-7-7-7-7-|-8-8-8-8-8-8-8-8-5-5-5-5-5-5-5-5-|
A|-5-5-5-5-5-5-5-5-7-7-7-7-7-7-7-7-|-8-8-8-8-8-8-8-8-3-3-3-3-3-3-3-3-|
E|-3-3-3-3-3-3-3-3-5-5-5-5-5-5-5-5-|-6-6-6-6-6-6-6-6-----------------|



e|---------------------------------|---------------------------------|
B|---------------------------------|---------------------------------|
G|-7-7-7-7-7-7-7-7-7-7-7-7-5-5-5-5-|---------------------------------|
D|-7-7-7-7-7-7-7-7-7-7-7-7-5-5-5-5-|-8-8-8-8-8-8-8-8-8-8-8-8-7-7-7-7-|
A|-5-5-5-5-5-5-5-5-5-5-5-5-3-3-3-3-|-8-8-8-8-8-8-8-8-8-8-8-8-7-7-7-7-|
E|---------------------------------|-6-6-6-6-6-6-6-6-6-6-6-6-5-5-5-5-|



e|---------------------------------|---------------------------|
B|---------------------------------|---------------------------|
G|---------------------------------|-----------------5-5-5-5-5-|
D|-5-5-5-5-5-5-5-5-7-7-7-7-7-7-7-7-|-8-8-8-8-8-8-8-8-5-5-5-5-5-|
A|-5-5-5-5-5-5-5-5-7-7-7-7-7-7-7-7-|-8-8-8-8-8-8-8-8-3-3-3-3-3-|
E|-3-3-3-3-3-3-3-3-5-5-5-5-5-5-5-5-|-6-6-6-6-6-6-6-6-----------|


Chorus 2X :

e|---------------------------------|---------------------------------|
B|---------------------------------|---------------------------------|
G|-1010101010101010101010109-9-9-9-|-7-7-7-7-7-7-7-7-7-7-7-7-5-5-5-5-|
D|-1010101010101010101010109-9-9-9-|-7-7-7-7-7-7-7-7-7-7-7-7-5-5-5-5-|
A|-8-8-8-8-8-8-8-8-8-8-8-8-7-7-7-7-|-5-5-5-5-5-5-5-5-5-5-5-5-3-3-3-3-|
E|---------------------------------|---------------------------------|

e|---------------------------------|---------------------------------|
B|---------------------------------|---------------------------------|
G|-3-3-3-3-3-3-3-3-5-5-5-5-5-5-5-5-|-3-3-3-3-3-3-3-3-5-5-5-5-5-5-5-5-|
D|-3-3-3-3-3-3-3-3-5-5-5-5-5-5-5-5-|-3-3-3-3-3-3-3-3-5-5-5-5-5-5-5-5-|
A|-1-1-1-1-1-1-1-1-3-3-3-3-3-3-3-3-|-1-1-1-1-1-1-1-1-3-3-3-3-3-3-3-3-|
E|---------------------------------|---------------------------------|

Solo (plays this while grt.2 makes the solo)

e|----------------------|---------------------------------|3x
B|----------------------|---------------------------------|
G|-7---5----------------|---------------------------------|
D|-7---5---8---7---5--3-|-5-5-5-5-5-5-5-5-7-7-7-7-7-7-7-7-|
A|-5---3---8---7---5--3-|-5-5-5-5-5-5-5-5-7-7-7-7-7-7-7-7-|
E|---------6---5---3--1-|-3-3-3-3-3-3-3-3-5-5-5-5-5-5-5-5-|

then

e|----------------------|---------------------------------|
B|----------------------|---------------------------------|
G|-7---5----------------|-----------------5-5-5-5-5-5-5-5-|
D|-7---5---8---7---5--3-|-5-5-5-5-5-5-5-5-5-5-5-5-5-5-5-5-|
A|-5---3---8---7---5--3-|-5-5-5-5-5-5-5-5-3-3-3-3-3-3-3-3-|
E|---------6---5---3--1-|-3-3-3-3-3-3-3-3-----------------|


Bridge
above the other guitar

e|---------------------------------|
B|-6---6---6---6---8---10--8---6---|Play 2x then,
G|---------------------------------|
D|---------------------------------|
A|---------------------------------|
E|---------------------------------|



e|---------------------------------|---------------------------------|
B|-6---6---6---6---6---5---3---5---|-6---------------8---10--8-------|
G|---------------------------------|-----9---7---9---------------10--|
D|---------------------------------|---------------------------------|
A|---------------------------------|---------------------------------|
E|---------------------------------|---------------------------------|

Then,


e|---------------------------------|---------------------------------|
B|---------------------------------|---------------------------------|
G|---------------------------------|-7-7-7-7-7-7-7-7-7-7-7-7-7-7-7-7-|
D|-3-3-3-3-3-3-3-3-3-3-3-3-3-3-3-3-|-7-7-7-7-7-7-7-7-7-7-7-7-7-7-7-7-|
A|-3-3-3-3-3-3-3-3-3-3-3-3-3-3-3-3-|-5-5-5-5-5-5-5-5-5-5-5-5-5-5-5-5-|
E|-1-1-1-1-1-1-1-1-1-1-1-1-1-1-1-1-|---------------------------------|



e|---------------------------------|---------------------------------|
B|---------------------------------|---------------------------------|
G|-----------------5-5-5-5-5-5-5-5-|-----------------5-5-5-5-5-5-5-5-|
D|-8-8-8-8-8-8-8-8-5-5-5-5-5-5-5-5-|-5-5-5-5-5-5-5-5-5-5-5-5-5-5-5-5-|
A|-8-8-8-8-8-8-8-8-3-3-3-3-3-3-3-3-|-5-5-5-5-5-5-5-5-3-3-3-3-3-3-3-3-|
E|-6-6-6-6-6-6-6-6-----------------|-3-3-3-3-3-3-3-3-----------------|


Chorus 2X :

e|---------------------------------|---------------------------------|
B|---------------------------------|---------------------------------|
G|-1010101010101010101010109-9-9-9-|-7-7-7-7-7-7-7-7-7-7-7-7-5-5-5-5-|
D|-1010101010101010101010109-9-9-9-|-7-7-7-7-7-7-7-7-7-7-7-7-5-5-5-5-|
A|-8-8-8-8-8-8-8-8-8-8-8-8-7-7-7-7-|-5-5-5-5-5-5-5-5-5-5-5-5-3-3-3-3-|
E|---------------------------------|---------------------------------|


e|---------------------------------|---------------------------------|
B|---------------------------------|---------------------------------|
G|-3-3-3-3-3-3-3-3-5-5-5-5-5-5-5-5-|-3-3-3-3-3-3-3-3-5-5-5-5-5-5-5-5-|
D|-3-3-3-3-3-3-3-3-5-5-5-5-5-5-5-5-|-3-3-3-3-3-3-3-3-5-5-5-5-5-5-5-5-|
A|-1-1-1-1-1-1-1-1-3-3-3-3-3-3-3-3-|-1-1-1-1-1-1-1-1-3-3-3-3-3-3-3-3-|
E|---------------------------------|---------------------------------|

Then,


e|---------------------------------|---------------------------------|
B|---------------------------------|---------------------------------|
G|-1010101010101010101010109-9-9-9-|-7-7-7-7-7-7-7-7-7-7-7-7-5-5-5-5-|
D|-1010101010101010101010109-9-9-9-|-7-7-7-7-7-7-7-7-7-7-7-7-5-5-5-5-|
A|-8-8-8-8-8-8-8-8-8-8-8-8-7-7-7-7-|-5-5-5-5-5-5-5-5-5-5-5-5-3-3-3-3-|
E|---------------------------------|---------------------------------|
				     fades out...



The End
Tap to rate this tab
# A B C D E F G H I J K L M N O P Q R S T U V W X Y Z