Song name
# A B C D E F G H I J K L M N O P Q R S T U V W X Y Z

My Chemical Romance - Thank You For The Venom tab

e|--------------------------------------------------------------------------------------|
B|-THIS IS ALL TREMOLO PICKING----the slides just make it sound like a new note---------|
G|--------------------------------------------------------------------------------------|
D|-/9-/12-/12-11-/12-/11-/11-/12-/14-/14-12-11-/16-12-9-/16-/16-/17---------------------|
A|-----------------------------------------------------(14)-a lazy way to play the 9----|
E|--------------------------------------------------------------------------------------|

e|------------------------------------------------------------------------------|
B|-STILL TREMOLO PICKING--------------------------------------------------------|
G|------------------------------------------------------------------------------|
D|-14-/14-/14-16-17-------------------------------------------------------------|
A|------------------------------------------------------------------------------|
E|------------------------------------------------------------------------------|

e|---------------------------------------------17-17^19~-17-15-14^15-------------|
B|---------------------------------------17-19------------------There is---------|
G|--------------------16-18-19-16-18-19------------------------more than one-----|
D|-16-17-19-16-17-19-------------------------------------------bend here---------|
A|-------------------------------------------------------------------------------|
E|-------------------------------------------------------------------------------|

e|-14-15-14---14---------19-17-15---14-----------------------------------------|
B|----------17---17-15-14---------17---17-15-14--15-14-12----------------------|
G|-----------------------------------------------------------------------------|
D|-----------------------------------------------------------------------------|
A|-----------------------------------------------------------------------------|
E|-----------------------------------------------------------------------------|

e|-----------------------------------------------------------------------------|
B|--15p14p12-14p12----12-------------------------------------------------------|
G|-----------------14----14-12--14p12p11-12p11--11-----------------------------|
D|---------------------------------------------14----14-12--14p12p11-12p11-----|
A|-----------------------------------------------------------------------------|
E|-----------------------------------------------------------------------------|

e|--------------------------------------------------------|
B|--------------------------------------------------------|
G|--------------------------------------------------------|
D|----11--------------------------------------------------|
A|-14----14-12--14p12p10-12p10--10------------------------|
E|-----------------------------14----14-14p12p10-9~-------|

************************************

| /   slide up
| \   slide down
| h   hammer-on
| p   pull-off
| ~   vibrato
| +   harmonic
| x   Mute note
| b   Bend
| pb  Pre-bend
| br  Bend release
| pbr Pre-bend release
| brb Bend release bend

************************************
Tap to rate this tab
# A B C D E F G H I J K L M N O P Q R S T U V W X Y Z