Song name
# A B C D E F G H I J K L M N O P Q R S T U V W X Y Z

My Chemical Romance - Kids From Yesterday tab

 Kids From Yesterday- My Chemical Romance

poppyrocks

From the BBC Maida Vale session

Tuning standard    Tempo 120bpm    Key D maj

Intro  Guitars Ray & Frank
e|--------------------------------------------------|
B|--------------------------------------------------|
G|-14--------------16------------11----------9------|
D|-x--(x12)---------x-(X4)-------x--(x9)-----x-(x1)-|
A|-12--------------14------------9-----------7------|
E|--------------------------------------------------|

e|--------------------------------------------------|
B|--------------------------------------------------|
G|--14-----------16---------11-----------9----------|
D|--x---(x8)-----x---(x8)---x---(x8)-----x----(x8)--|
A|--12-----------14---------9------------7----------|
E|--------------------------------------------------|

Verse 1  Ray  (mild distortion)

  "rides we take"                "rules they make"
e|--------------------------------------------------|
B|--------------10---------------------------10-----|
G|--------------------------------------------------|
D|---11-h-12----------------------11-h-12-----------|
A|--------------------------------------------------|
E|--------------------------------------------------|

Verse 1  Frank (clean with reverb)

   "rides we take"                "rules they make"
e|----------5------------------------------5--------|
B|--------------------------------------------------|
G|----6h7--------------------------6h7--------------|
D|--------------------------------------------------|
A|--------------------------------------------------|
E|--------------------------------------------------|


   "when the sun goes black"
e|--------------------------------------------------|
B|-----12\7~~\5~~-----------------------------------|
G|--------------------------------------------------|
D|--------------------------------------------------|
A|--------------------------------------------------|
E|--------------------------------------------------|

Chorus 1  Ray
e|--------------------------------------------------|
B|--------------------------------------------------|
G|-7-p-6---7-p-6---7--(x3)--7-p-6----9--7--6--7-(x1)|(x4)
D|-------7-------7----------------7-----------------|
A|--------------------------------------------------|
E|--------------------------------------------------|

Chorus 1  Frank
e|--------------------------------------------------|
B|--------7-----------------------------------------|
G|-7---7-----7-----7--(x4)--------------------------|
D|---7----------7-----------------------------------|(x4)
A|--------------------------------------------------|
E|--------------------------------------------------|

Repeat intro

Verse 2 (same as verse 1)

Chorus 2

Frank plays same as chorus 1

Chorus 2

Ray

e|--------------------------------------------------|
B|--------------------------------------------------|
G|--------------------------------------------------|
D|--5---------7----------9-----------12-------------|
A|--x--(x8)---x---(x8)---x---(x8)----x----(x8)------|
E|--3---------5----------7-----------10-------------|

e|--------------------------------------------------|
B|--------------------------------------------------|
G|---------------------------------7--------6----4--|
D|--5--------7---------9-----------x--(x3)--x----x--|
A|--x--(x8)--x--(x8)---x---(x7)----5--------4----2--|
E|--3--------5---------7----------------------------|

e|--------------------------------------------------|
B|--------------------------------------------------|
G|--------------------7-----------------------------|
D|--5--------7--------x--(x7)---4---5------4--5-----|
A|--x--(x8)--x--(x8)--5---------x-/-x-(x7)-x/-x-(x8)|
E|--3--------5------------------2---3------2--3-----|

e|--------------------------------------------------|
B|--------------------------------------------------|
G|------------7~~~~~~~~~~~~~~~----------------------|
D|--7---------x-------------------------------------|
A|--x--(x8)---5-------------------------------------|
E|--5-----------------------------------------------|

Solo

Ray
e|--------------------------------------------------|
B|-----------------------------------(Frank then----|
G|------------------------------------does-a pick---|
D|------------------------------------scrape-)------|
A|---0/5~~~~~~~~~~~~~~-----0/5~~~~~~~~~~~~~~~-------|
E|--------------------------------------------------|

e|--------------------------------------------------|
B|--------------------------------------------------|
G|---7--------9--------11--------7-------9----------|
D|---x-(x8)---x--(x4)--x---(x4)--x-(x8)--x--(x4)----|
A|---5--------7--------9---------5-------7----------|
E|--------------------------------------------------|

e|--------------------------------------------------|
B|--------------------------------------------------|
G|---6--------4----7--------9---------11------------|
D|---x--(x5)--x----x--(x4)--x--(x4)---x---(x4)------|
A|---4--------2----5--------7---------9-------------|
E|--------------------------------------------------|

e|--------------------------------------------------|
B|--------------------------------------------------|
G|---14-----------12---11----12---11---6----7-------|
D|---x----(x9)-----x-\-x--/--x--\--x---x----x-------|
A|---12-----------10---9-----10----9---4----5-------|
E|--------------------------------------------------|


e|--------------------------------------------------|
B|--------------------------------------------------|
G|--7--------9--------11----------7---------9-------|
D|--x--(x8)--x--(x4)--x---(x4)----x--(x8)---x---(x4)|
A|--5--------7--------9-----------5---------7-------|
E|--------------------------------------------------|

e|--------------------------------------------------|
B|--------------------------------------------------|
G|--6---12--------11--------11---9-----9------------|
D|--x-/-x---(x4)--x--(x3)---x-\-x------x--(x3)------|
A|--4---10--------9----------9---7-----7------------|
E|--------------------------------------------------|

e|--------------------------------------------------|
B|--------------------------------------------------|
G|--12--------12---14-----11----7---9---------------|
D|--x---(x3)--x--/-x---\--x-----x---x---------------|
A|--10--------10---12-----9-----5---7---------------|
E|--------------------------------------------------|
Repeat chorus 2 Ray

Outro
Ray
e|--------------------------------------------------|
B|--15--------14--12--14----15----------------------|
G|---x--(x9) -x---x----x----x---(x16)---------------|
D|--12--------11--9---11----12----------------------|(x4)
A|--------------------------------------------------|
E|--------------------------------------------------|
Frank
e|--------------------------------------------------|
B|--------------------------------------------------|
G|-7-------6--4--6----7--------9--------7-----------|(x4)
D|-x-(x9)--x--x--x----x-(x4)---x--(x4)--x--(x8)-----|
A|-5-------4--2--4----5--------7--------5-----------|
E|--------------------------------------------------|
Frank outro solo(with feedback)
e|--------------------------------------------------|
B|--------------------------------------------------|
G|--------------------------------------------------|
D|--------------------------------------------------|(x2)
A|--5/7/9\5~~~~~~------5/7\4/5/7~~~~~~--------------|
E|--------------------------------------------------|
Repeat Ray chorus 1 
Repeat Frank chorus 1

e|--------------------------------------------------|
B|------7-------------------------------------------|
G|------x-------------------------------------------|
D|------5-------------------------------------------|
A|--------------------------------------------------|
E|--------------------------------------------------|
Ends
| /   slide up
| \   slide down
| h   hammer-on
| p   pull-off
| ~   vibrato
| +   harmonic
| x   Mute note
| b   Bend
| pb  Pre-bend
| br  Bend release
| pbr Pre-bend release
| brb Bend release bend

Tap to rate this tab
 
# A B C D E F G H I J K L M N O P Q R S T U V W X Y Z