Song name
# A B C D E F G H I J K L M N O P Q R S T U V W X Y Z

My Chemical Romance - Summertime tab

Summertime by My Chemical Romance

This is my version of the song. All that I wrote here are from resources in 
the internet. Ultimate guitar tabbers(You know who you are; You'll notice 
your tabs here), Youtube covers (The guy that gives the 'Solo' part) and 
other websites (You'll notice your tabs here). I just combined all so that 
this tab would be the most accurate. Thanks!

Lead Guitar(Intro)
e-----------------------------------------------------------------------------------------|
B----------10-7--77777--888888-10-7--77--222-3333333-10-7--77777--10-10-10-10-10-10-10-10-|
G-77777777--------------------------------------------------------------------------------|
D-----------------------------------------------------------------------------------------|
A-----------------------------------------------------------------------------------------|
E-----------------------------------------------------------------------------------------|

Pre-verse
(LEAD)
e-----------------------------------------------------------------------------------------|
B-----3~--8-7-5--2~--8-7-5-0~--8-7-5-10-8-7-5~--------------------------------------------|
G-----------------------------------------------------------------------------------------|
D-----------------------------------------------------------------------------------------|
A-----------------------------------------------------------------------------------------|
E-----------------------------------------------------------------------------------------|

(CHORDS)/(POWER CHORDS)
e---22222222---------------------33333333--|----------------------------------------------|
B---33333333-22222222------------33333333--|----------------------------------------------|
G---22222222-22222222----------------------|----------------------------------------------|
D------------22222222--22222222------------|-77777777--77777777--22222222--55555555-------|
A----------------------22222222--22222222--|-55555555--77777777--22222222--55555555-------|
E----------------------00000000--33333333--|-----------55555555--00000000--33333333-------|

Verse 1
(CHORDS)/(POWER CHORDS)
e---22222222---------------------33333333--|----------------------------------------------|
B---33333333-22222222------------33333333--|----------------------------------------------|
G---22222222-22222222----------------------|----------------------------------------------|
D------------22222222--22222222------------|-77777777--77777777--22222222--55555555-------| (2x)
A----------------------22222222--22222222--|-55555555--77777777--22222222--55555555-------|
E----------------------00000000--33333333--|-----------55555555--00000000--33333333-------|

Chorus
(CHORDS)					
e---3333--------2222--33333333------------------|
B---3333--2222--3333--33333333--2222------------|
G---------2222--2222------------2222--44444444--|
D---------2222------------------2222--44444444--|
A---2222--------------22222222--------22222222--|
E---3333--------------33333333------------------|

e---3333--------2222--33333333------------------|
B---3333--2222--3333--33333333--22222222--------|
G---------2222--2222------------22222222--------|
D---------2222------------------22222222--------|
A---2222--------------22222222------------------|
E---3333--------------33333333------------------|

(POWER CHORDS)
e-----------------------------------------|
B-----------------------------------------|
G-----------------------------------------|
D--5555--7777--7777--5555555--7777--9999--|
A--5555--7777--5555--5555555--7777--9999--|
E--3333--5555--------3333333--5555--7777--|

e-----------------------------------------|
B-----------------------------------------|
G-----------------------------------------|
D--5555--7777--7777--5555555--77777777----|
A--5555--7777--5555--5555555--77777777----|
E--3333--5555--------3333333--55555555----|


Repeat Verse 1
Repeat Chorus

After Chorus 2
e-------------------------------|
B-------------------------------|
G-------------------------------|
D--7777-7777--------------------|(There is a lead part together
A--5555-4444--------------------|with this chords)
E-------------------------------|

Before solo
e--10--------9--------7---------9------------|
B-----10-------10-------10-------10----------|
G--------------------------------------------|
D--------------------------------------------|
A--------------------------------------------|
E--------------------------------------------|

SOLO
e-----------------------------------------------------|
B-10-10-10-10--10-10-10-10----------------------------|
G------------77-----------66-7\99-9\11-11-14-6-6\4~---|
D-----------------------------------------------------|
A-----------------------------------------------------|
E-----------------------------------------------------|

e-----------------------------------------------------|
B--10-10-10-10--10-10-10-10---------------------------|
G-------------77-----------66-7\9-9-9\11-11-11-14-16~-|
D-----------------------------------------------------|
A-----------------------------------------------------|
E-----------------------------------------------------|

e--7-9-9b-7-9-9b-7--12-12-12\14-14-9-7~-7-9-9b--7-9-9b-7-9-10~~~------|
B---------------------------------------------------------------------|
G---------------------------------------------------------------------|
D---------------------------------------------------------------------|
A---------------------------------------------------------------------|
E---------------------------------------------------------------------|

After solo
e-----------------|
B-----------------|
G-----------------|  (The dont walk away part)
D--7777777777777--|
A--5555555555555--|
E-----------------|

Repeat chorus 
but some changes in the last bar of chorus
e---------------------------------------------------------------------|
B---------------------------------------------------------------------|
G---------------------------------------------------------------------|
D--5555555-----77777777-----------99999999--------5555-----------7~---|
A--5555555-----77777777-----------99999999--------5555-----------7~---|
E--3333333-----55555555-----------77777777--------3333-----------5~---|
Harm... You can run away.. You can run if..You can run away with me..

Outro
e--------------------------------------|
B----------10-7--77777--888888-10-7~~--|
G-77777777-----------------------------|
D--------------------------------------|
A--------------------------------------|
E--------------------------------------|

Please rate it. Thanks. :}
Tap to rate this tab
# A B C D E F G H I J K L M N O P Q R S T U V W X Y Z