Song name
# A B C D E F G H I J K L M N O P Q R S T U V W X Y Z

My Chemical Romance - Romance tab

E----7---7---7---7---5---3---3---2---0---0---2---3---12--12--12--12--10--8--8|
B---0---0---0---0---0---0---0---0---0---0---0---0---0---0---0---0---0---0--0-|
G--0---0---0---0---0---0---0---0---0---0---0---0---0---0---0---0---0---0--0--|
D----------------------------------------------------------------------------|
A----------------------------------------------------------------------------|
E----------------------------------------------------------------------------|


E---7---5---5---7---8---7---7/11-8---7---7---5---3---3--2---0---2---2---2--2|
B--0---0---0---0---0---0---0---0---0---0---0---0---0---0---0---0---0---0--0-|
G-0---0---0---0---0---0---0---0---0---0---0---0---0---0---0---0---0---0--0--|
D---------------------------------------------------------------------------|
A---------------------------------------------------------------------------|
E---------------------------------------------------------------------------|

E---3---2---0---0---0---0---2---3---3/12---|
B--0---0---0---0---0---0---0---0---0-------|
G-0---0---0---0---0---0---0---0---0--------|  Repeat all till the song ends
D------------------------------------------|    
A------------------------------------------|
E------------------------------------------|

Thank you for watching
Tap to rate this tab
 
# A B C D E F G H I J K L M N O P Q R S T U V W X Y Z