Song name
# A B C D E F G H I J K L M N O P Q R S T U V W X Y Z

My Chemical Romance - Welcome To The Black Parade tab

G1     
|----------------------------------|---------------------------------|
|------------------------12h13h15--|---------------------------------|
|----------------11h12h14----------|---------------------------------|
|--------10h12h14------------------|---------------------------------|
|10h12h14--------------------------|---------------------------------|
|----------------------------------|---------------------------------|
G2
|----------------------------------|----------------12h14h15b-17-----|
|----------------------------------|--------12h13h15-----------------|
|----------------------------------|11h12h14-------------------------|
|----------------------------------|---------------------------------|
|----------------------------------|---------------------------------|
|----------------------------------|---------------------------------|



G1  
|16b17------------16b17-------16p14|16--16--14----16b17--16b17--16p14|
|----------------------------------|---------------------------------|
|----------------------------------|---------------------------------|
|----------------------------------|---------------------------------|
|----------------------------------|---------------------------------|
|----------------------------------|---------------------------------|
G2
|19b21------------19b21-------19p17|19--19--17----19b21--19b21--19p17|
|----------------------------------|---------------------------------|
|----------------------------------|---------------------------------|
|----------------------------------|---------------------------------|
|----------------------------------|---------------------------------|
|----------------------------------|---------------------------------|



G1       
|16--14----------------------------|---------------------------------|
|--------14--------------------14--|--------------17--14-------------|
|----------------------------------|14--14---------------------------|
|----------------------------------|---------------------------------|
|----------------------------------|---------------------------------|
|----------------------------------|---------------------------------|
G2                                                              t t t
|19--17------------------------17--|17--16--------16-b17-------------|
|--------19------------------------|---------------------------191714|
|----------------------------------|---------------------------------|
|----------------------------------|---------------------------------|
|----------------------------------|---------------------------------|
|----------------------------------|---------------------------------|



G1     
|----------------------------------|---------------------------------|
|----------------------------------|---------------------------------|
|----------------------------------|---------------------------------|
|----------------------------------|---------------------------------|
|----------------------------------|---------------------------------|
|----------------------------------|---------------------------------|
G2           t t t            t t t 
|----------------------------------|---------------------------------|
|-----------19171417b19------171417|14121412--12b14--12--12b14--12p10|
|16b18-----------------------------|--------14---------14------------|
|----------------------------------|---------------------------------|
|----------------------------------|---------------------------------|
|----------------------------------|---------------------------------|

G2
|----------------------------------|---------------------------------|
|b12-------------------------------|---------------------------------|
|----------------------------------|---------------------------------|
|-----14--14-----------------------|---------------------------------|
|----------------------------------|---------------------------------|
|----------------------------------|---------------------------------|



G1
|----------------------------------|------------19b21--19b21----19p17|
|----------------------------------|---------------------------------|
|----------------------------------|---------------------------------|
|----------------------------------|---------------------------------|
|----------------------------------|---------------------------------|
|----------------------------------|---------------------------------|
G1 
   
|19--------------------------------|---------------------------------|
|----17--17------------------------|---------------------------------|
|----------------------------------|---------------------------------|
|----------------------------------|---------------------------------|
|----------------------------------|---------------------------------|
|----------------------------------|---------------------------------|
 
Tap to rate this tab
# A B C D E F G H I J K L M N O P Q R S T U V W X Y Z