Song name
# A B C D E F G H I J K L M N O P Q R S T U V W X Y Z

My Chemical Romance - Im Not Okay I Promise tab

Guitar 1
|--------------------------------|--------------------------------|
|15b17-----------15b17-----------|15b17--r15------14------12------|
|--------------------------------|--------------------------------|
|--------------------------------|--------------------------------|
|--------------------------------|--------------------------------|
|--------------------------------|--------------------------------|
 
|--------------------------------|--------------------------------|
|--------12h14---12--------------|--------------------------------|
|--------------------------------|9-------9-------13------14------|
|--------------------------------|--------------------------------|
|--------------------------------|--------------------------------|
|--------------------------------|--------------------------------|
   
|--------------------------------|--------------------------------|
|15b17-----------15b17-----------|15b17--r15------14------15------|
|--------------------------------|--------------------------------|
|--------------------------------|--------------------------------|
|--------------------------------|--------------------------------|
|--------------------------------|--------------------------------|
    
|--------------------------------|--------------------------------|
|--------15h17---14--------------|14--12--14--12--14--12--14--12--|
|--------------------------------|--------------------------------|
|--------------------------------|--------------------------------|
|--------------------------------|--------------------------------|
|--------------------------------|--------------------------------|
    
|--------------------------------|--------------------------------|
|--------------------------------|--------------------------------|
|13b14------------14-------------|14--------------14----------14--|
|--------------------------------|--------------------------------|
|--------------------------------|--------------------------------|
|--------------------------------|--------------------------------|

|--------------------------------|---------------------------------|
|--------------------------------|----------------14h15h17-15p14---|
|r13-----------------------------|--------13h14h16------------- h16|
|--------------------------------|12h14h16-------------------------|
|--------------------------------|---------------------------------|
|--------------------------------|---------------------------------|

|--------------------------------|--------------------------------|
|10------------------------------|--------------------------------|
|--------------------------------|--------------------------------|
|--------------------------------|--------------------------------|
|--------------------------------|--------------------------------|
|--------------------------------|--------------------------------|

Guitar 2

|--------------------------------|--------------------------------|
|12b14-----------12b14-----------|12b14--r12----------------------|
|--------------------------------|----------------14------13------|
|--------------------------------|--------------------------------|
|--------------------------------|--------------------------------|
|--------------------------------|--------------------------------|
 
|--------------------------------|--------12----------------------|
|--------------------------------|12--------------14------15------|
|--------13h14-------------------|--------------------------------|
|----------------14--------------|--------------------------------|
|--------------------------------|--------------------------------|
|--------------------------------|--------------------------------|

|--------------------------------|--------------------------------|
|12b14-----------12b14-----------|12b14--r12----------------------|
|--------------------------------|----------------14------16------|
|--------------------------------|--------------------------------|
|--------------------------------|--------------------------------|
|--------------------------------|--------------------------------|

|--------------------------------|--------------------------------|
|--------12b14-------------------|------------17--------------17--|
|-----------------14-------------|14--13--14------14--13--14------|
|--------------------------------|--------------------------------|
|--------------------------------|--------------------------------|
|--------------------------------|--------------------------------|

|--------------------------------|--------------------------------|
|17b19---17------15--17--15--14--|15--14--12--14--12-b14------14--|
|--------------------------------|--------------------------------|
|--------------------------------|--------------------------------|
|--------------------------------|--------------------------------|
|--------------------------------|--------------------------------|
  
|--------------------------------|--------------------------------|
|r12-----------------------------|--------------------------------|
|--------------------------------|----------------9h11h12-11p9----|
|--------------------------------|--------9h11h12-------------h12-|
|--------------------------------|9-h11h12------------------------|
|--------------------------------|--------------------------------|
     
|--------------------------------|--------------------------------|
|--------------------------------|--------------------------------|
|--------------------------------|--------------------------------|
|-11-----------------------------|--------------------------------|
|--------------------------------|--------------------------------|
|--------------------------------|--------------------------------|

Guitar 3

|--------------------------------|--------------------------------|
|--------------------------------|--------------------------------|
|--------------------------------|--------------------------------|
|--------------------------------|--------------------------------|
|14/16-----------14/16-----------|14/16----14------12------11-----|
|--------------------------------|--------------------------------|
 
|--------------------------------|--------------------------------|
|--------------------------------|--------------------------------|
|--------------------------------|--------------------------------|
|--------------------------------|--------------------------------|
|--------11h12-------------------|----------------4-------5-------|
|----------------12--------------|--------------------------------|

|--------------------------------|--------------------------------|
|--------------------------------|--------------------------------|
|--------------------------------|--------------------------------|
|--------------------------------|--------------------------------|
|7---------------9---------------|11-------------/16------12------|
|--------------------------------|--------------------------------|
       
|--------------------------------|--------------------------------|
|--------------------------------|--------------------------------|
|--------------------------------|--------------------------------|
|--------------------------------|--------------------------------|
|--------14------12--------------|12--11--12--14--12--11--12--14--|
|--------------------------------|--------------------------------|
 
|--------------------------------|--------------------------------|
|--------------------------------|--------------------------------|
|--------------------------------|--------------------------------|
|--------------------------------|--------------------------------|
|17------16------14--16--14--12--|14--12--11--12--11--9---11--9---|
|--------------------------------|--------------------------------|
    
|--------------------------------|----------------------------------|
|--------------------------------|----------------------------------|
|--------------------------------|----------------------------------|
|--------------------------------|----------------11h12h14-12p11----|
|7-------------------------------|--------11h12h14--------------h14-|
|--------------------------------|10h12h14--------------------------|
      
|--------------------------------|--------------------------------|
|--------------------------------|--------------------------------|
|--------------------------------|--------------------------------|
|--------------------------------|--------------------------------|
|12------------------------------|--------------------------------|
|--------------------------------|--------------------------------|

Guitar 4

|--------------------------------|--------------------------------|
|--------------------------------|--------------------------------|
|--------------------------------|4-------4-------4-------4-------|
|9-------9-------9-------9-------|7-------7-------7-------7-------|
|9-------9-------9-------9-------|7-------7-------7-------7-------|
|7-------7-------7-------7-------|5-------5-------5-------5-------|

|--------------------------------|--------------------------------|
|--------------------------------|--------------------------------|
|4-------4-------4-------4-------|--------------------------------|
|6-------6-------6-------6-------|2-------2-------6-------6-------|
|7-------7-------7-------7-------|2-------2-------7-------7-------|
|4-------4-------4-------4-------|0-------0-------4-------4-------|

|--------------------------------|--------------------------------|
|--------------------------------|--------------------------------|
|--------------------------------|--------------------------------|
|7-------7-------7-------7-------|6-------6-------6-------6-------|
|7-------7-------7-------7-------|7-------7-------7-------7-------|
|5-------5-------5-------5-------|4-------4-------4-------4-------|

|--------------------------------|--------------------------------|
|--------------------------------|--------------------------------|
|--------------------------------|--------------------------------|
|4-------4-------4-------4-------|2-------2-------4-------4-------|
|4-------4-------4-------4-------|2-------2-------4-------4-------|
|2-------2-------2-------2-------|0-------0-------2-------2-------|

|--------------------------------|--------------------------------|
|--------------------------------|--------------------------------|
|--------------------------------|4-------4-------4-------4-------|
|9-------9-------9-------9-------|7-------7-------7-------7-------|
|9-------9-------9-------9-------|7-------7-------7-------7-------|
|7-------7-------7-------7-------|5-------5-------5-------5-------|

|--------------------------------|--------------------------------|
|--------------------------------|--------------------------------|
|4-------4-------4-------4-------|--------------------------------|
|6-------6-------6-------6-------|2-------2-------6-------6-------|
|7-------7-------7-------7-------|2-------2-------7-------7-------|
|4-------4-------4-------4-------|0-------0-------4-------4-------|
Tap to rate this tab
# A B C D E F G H I J K L M N O P Q R S T U V W X Y Z