Song name
# A B C D E F G H I J K L M N O P Q R S T U V W X Y Z

My Chemical Romance - Boy Division tab

-------------------------------------------------------------------------------
BOY DIVISION - My Chemical Romance
-------------------------------------------------------------------------------
Tabbed by: anywayn
E-mail: krasnyi787@gmail.com

Tuning: Standard

I know there are probably a few mistakes in here, so if you have a suggestion, kindly 
send me an email and I will edit as needed. Thank you!

Verse: 0:02
e|---------------------------------------------------------------------------|
B|---------------------------------------------------------------------------|
G|-88888888-44444444----------33333333---------------------------------------|
D|-88888888-44444444-44444444-33333333---------------------------------------|
A|-66666666-22222222-44444444-11111111---------------------------------------|
E|-------------------22222222---------------x2-------------------------------|

e|---------------------------------------------------------------------------|
B|---------------------------------------------------------------------------|
G|-88888888-44444444-33333333-33333333---------------------------------------|
D|-88888888-44444444-33333333-33333333---------------------------------------|
A|-66666666-22222222-11111111-11111111---------------------------------------|
E|------------------------------------------x2-------------------------------|

e|---------------------------------------------------------------------------|
B|---------------------------------------------------------------------------|
G|-4444444444444444------------------4444444444444444-66666666-77777777------|
D|-4444444444444444-4444444444444444-4444444444444444-66666666-77777777------|
A|-2222222222222222-4444444444444444-2222222222222222-44444444-55555555------|
E|------------------2222222222222222-----------------------------------------|

Chorus: 0:33
e|---------------------------------------------------------------------------|
B|---------------------------------------------------------------------------|
G|------------------3------------88888888-4444444444444444-------------------|
D|-4444444444444444-3-3333333333-88888888-4444444444444444-------------------|
A|-4444444444444444-1-3333333333-66666666-2222222222222222-------------------|
E|-2222222222222222---1111111111---------------------------------------------|

e|---------------------------------------------------------------------------|
B|-----------------????????????????????????????????--------------------------|
G|-888888888888888--8-8-8-8-8-8-8-8-8-8-8-8-8-8-8-8-4444444444444444---------|
D|-888888888888888--8-8-8-8-8-8-8-8-8-8-8-8-8-8-8-8-4444444444444444---------|
A|-666666666666666-10101010101010101010101010101010-2222222222222222---------|
E|---------------------------------------------------------------------------|

e|---------------------------------------------------------------------------|
B|---------------------------------------------------------------------------|
G|-66666666-77777777---------------------------------------------------------|
D|-66666666-77777777---------------------------------------------------------|
A|-44444444-55555555---------------------------------------------------------|
E|---------------------------------------------------------------------------|

Post Chorus: 0:54
e|---------------------------------------------------------------------------|
B|---------------------------------------------------------------------------|
G|-8~-----8~-----------------------------------------------------------------|
D|-8~-----8~-----------------------------------------------------------------|
A|-6~-----6~-----------------------------------------------------------------|
E|---------------------------------------------------------------------------|




Verse 2: 0:59 (Listen to song for new strumming pattern)
e|---------------------------------------------------------------------------|
B|---------------------------------------------------------------------------|
G|-8-8-8888-4-4-4444----------3-3-3-3----------------------------------------|
D|-8-8-8888-4-4-4444-4-4-4444-3-3-3-3----------------------------------------|
A|-6-6-6666-2-2-2222-4-4-4444-1-1-1-1----------------------------------------|
E|-------------------2-2-2222---------------x2-------------------------------|

e|---------------------------------------------------------------------------|
B|---------------------------------------------------------------------------|
G|-88888888-44444444-33333333-33333333---------------------------------------|
D|-88888888-44444444-33333333-33333333---------------------------------------|
A|-66666666-22222222-11111111-11111111---------------------------------------|
E|------------------------------------------x2-------------------------------|

e|---------------------------------------------------------------------------|
B|---------------------------------------------------------------------------|
G|-4444444444444444------------------4444444444444444-66666666-77777777------|
D|-4444444444444444-4444444444444444-4444444444444444-66666666-77777777------|
A|-2222222222222222-4444444444444444-2222222222222222-44444444-55555555------|
E|------------------2222222222222222-----------------------------------------|

Chorus: 1:31
e|---------------------------------------------------------------------------|
B|---------------------------------------------------------------------------|
G|------------------3------------88888888-4444444444444444-------------------|
D|-4444444444444444-3-3333333333-88888888-4444444444444444-------------------|
A|-4444444444444444-1-3333333333-66666666-2222222222222222-------------------|
E|-2222222222222222---1111111111---------------------------------------------|

e|---------------------------------------------------------------------------|
B|-----------------????????????????????????????????--------------------------|
G|-888888888888888--8-8-8-8-8-8-8-8-8-8-8-8-8-8-8-8-4444444444444444---------|
D|-888888888888888--8-8-8-8-8-8-8-8-8-8-8-8-8-8-8-8-4444444444444444---------|
A|-666666666666666-10101010101010101010101010101010-2222222222222222---------|
E|---------------------------------------------------------------------------|

e|---------------------------------------------------------------------------|
B|---------------------------------------------------------------------------|
G|-66666666-77777777---------------------------------------------------------|
D|-66666666-77777777---------------------------------------------------------|
A|-44444444-55555555---------------------------------------------------------|
E|---------------------------------------------------------------------------|

Post Chorus 2: 1:51
e|---------------------------------------------------------------------------|
B|---------------------------------------------------------------------------|
G|-8~-----8~-----8~-----8~---------------------------------------------------|
D|-8~-----8~-----8~-----8~---------------------------------------------------|
A|-6~-----6~-----6~-----6~---------------------------------------------------|
E|---------------------------------------------------------------------------|

Bridge: 2:02 (Can also be played an octave below)
e|---------------------------------------------------------------------------|
B|---------------------------------------------------------------------------|
G|-8888-9-8888-9-8888-9-12-11-10-9-------------------------------------------|
D|-8888-9-8888-9-8888-9-12-11-10-9-------------------------------------------|
A|-6666-7-6666-7-6666-7-10-9--8--6-------------------------------------------|
E|---------------------------------------------------------------------------|




e|---------------------------------------------------------------------------|
B|---------------------------------------------------------------------------|
G|-8888-9-8888-9-66666666666666/88-------------------------------------------|
D|-8888-9-8888-9-66666666666666/88-------------------------------------------|
A|-6666-7-6666-7-44444444444444/66-------------------------------------------|
E|---------------**************----------------------------------------------|

Pre Outro: 2:12 (Listen for the strumming pattern)
e|---------------------------------------------------------------------------|
B|---------------------------------------------------------------------------|
G|-888888888-8888-111111111111111111-11111111-131313131313131313-13131313----|
D|-xxxxxxxxx-xxxx-xxxxxxxxxxxxxxxxxx-xxxxxxxx-xxxxxxxxxxxxxxxxxx-xxxxxxxx----|
A|-666666666-6666-9-9-9-9-9-9-9-9-9--9-9-9-9--111111111111111111-11111111----|
E|---------------------------------------------------------------------------|

e|---------------------------------------------------------------------------|
B|---------------------------------------------------------------------------|
G|-1515151515151515-15151515-------------------------------------------------|
D|-xxxxxxxxxxxxxxxx-xxxxxxxx-------------------------------------------------|
A|-1313131313131313-13131313-------------------------------------------------|
E|---------------------------------------------------------------------------|

Chorus: 2:23
e|---------------------------------------------------------------------------|
B|---------------------------------------------------------------------------|
G|------------------6666666666666666-4444444444444444-6666666666666666-------|
D|-3333333333333333-6666666666666666-4444444444444444-6666666666666666-------|
A|-4444444444444444-4444444444444444-2222222222222222-4444444444444444-------|
E|-2222222222222222----------------------------------------------------------|

e|---------------------------------------------------------------------------|
B|---------------------------------------------------------------------------|
G|-77777777------------------3333333333333333-4444444444444444---------------|
D|-77777777-4444444444444444-3333333333333333-4444444444444444---------------|
A|-55555555-4444444444444444-1111111111111111-2222222222222222---------------|
E|----------2222222222222222-------------------------------------------------|

e|---------------------------------------------------------------------------|
B|---------------------------------------------------------------------------|
G|-66666666-77777777---------------------------------------------------------|
D|-66666666-77777777---------------------------------------------------------|
A|-44444444-55555555---------------------------------------------------------|
E|---------------------------------------------------------------------------|

Outro: 2:44
e|---------------------------------------------------------------------------|
B|---------------------------------------------------------------------------|
G|-88888888-888888888-111111111111111111-13131313131313-13131313-------------|
D|-xxxxxxxx-xxxxxxxxx-xxxxxxxxxxxxxxxxxx-xxxxxxxxxxxxxx-xxxxxxxx-------------|
A|-66666666-666666666-9-9-9-9-9-9-9-9-9--15151515151515-15151515-------------|
E|---------------------------------------------------------------------------|

************************************
| *   palm mute
| /   slide up
| \   slide down
| h   hammer-on
| p   pull-off
| ~   vibrato
| +   harmonic
| x   Mute note
| b   Bend
| pb  Pre-bend
| br  Bend release
| pbr Pre-bend release
| brb Bend release bend

************************************
Tap to rate this tab
 
# A B C D E F G H I J K L M N O P Q R S T U V W X Y Z