Song name
# A B C D E F G H I J K L M N O P Q R S T U V W X Y Z

My Chemical Romance - Surrender The Night tab

Standart tuning

INTRO

e|-----------------|-------------------|
B|-----------------|-------------------|
G|-9-9-9-9-9-9-9-9-|-------------------|
D|-----------------|-9-9-9-9-----------|
A|-----------------|---------7-7-11-11-|
E|-----------------|-------------------|

e|------------------|-------------------------|
B|------------------|-------------------------|
G|-9-9-9-9--9-9-9-9-|-11----------------------|
D|------------------|----11-11-11-11-11-11-11-|
A|------------------|-------------------------|
E|------------------|-------------------------|

e|-------------------------|--------------------|
B|-------------------------|--------------------|
G|-13-13-13-13-13-13-13-13-|-11-11-11-9-9-9-8-8-|
D|-------------------------|--------------------|
A|-------------------------|--------------------|
E|-------------------------|--------------------|

e|------------------|-------------------------|
B|------------------|-------------------------|
G|-9-9-9-9-9-9-9-11-|-------------------------|
D|------------------|-11-11-11-11-11-11-11-11-|
A|------------------|-------------------------|
E|------------------|-------------------------|
Tap to rate this tab
 
# A B C D E F G H I J K L M N O P Q R S T U V W X Y Z