Song name
# A B C D E F G H I J K L M N O P Q R S T U V W X Y Z

My Chemical Romance - The World Is Ugly tab

-----------------------------------------------------------------------------
          The World is Ugly - My Chemical Romance
-----------------------------------------------------------------------------
Tabbed by: Joe Owens
E-mail: Slinkeedawg@gmail.com

Tuning: Standard (EADG)

Intro (0:21)

Guitar 2 (Listen for strum patterns)
e|--------------------------------------------------------------------------|
B|--------------------------------------------------------------------------|
G|---7---7------------------------------------------------------------------|
D|---7---7---9---7---5---7---9---7---5---7----------------------------------|
A|---5---4---9---7---5---7---9---7---5---7----------------------------------|
E|-----------7---5---3---5---7---5---3---5----------------------------------|


Guitar 1
e|--------------------------------------------------------------------------|
B|--10--10--10--10--10--10--10--10------------------------------------------|
G|-------------------------------------------7--7--7--9--9--9--9--7---------|
D|--------------------------------------------------------------------------|
A|--------------------------------------------------------------------------|
E|--------------------------------------------------------------------------|

e|--------------------------------------------------------------------------|
B|--10--10--10--10--10--10--/12--12-----------------------------------------|
G|--------------------------------------------7--7--7--9--9--9^(11)-9-7-----|
D|--------------------------------------------------------------------------|
A|--------------------------------------------------------------------------|
E|--------------------------------------------------------------------------|

e|--------------------------------------------------------------------------|
B|-------------10--10--10--10--10--10---------------------------------------|
G|--7--7--7--------------------------------9--9--9--9--9--7--9-/11-11^(12)--|
D|--------------------------------------------------------------------------|
A|--------------------------------------------------------------------------|
E|--------------------------------------------------------------------------|

e|--------------------------------------------------------------------------|
B|--------------------------------------------------------------------------|
G|--11^(12)--11^(12)-11-9--9--9---------------------------------------------|
D|--------------------------------------------------------------------------|
A|--------------------------------------------------------------------------|
E|--------------------------------------------------------------------------|

e|--------------------------------------------------------------------------|
B|--10--10--10--10--10--10-/12--12------------------------------------------|
G|------------------------------------------9--9--9--9--9--9--9--7----------|
D|-------------------------------------------------------------------9~-----|
A|--------------------------------------------------------------------------|
E|--------------------------------------------------------------------------|

Verse (0:46)

(Bass)

e|--------------------------------------------------------------------------|
B|--------------------------------------------------------------------------|
G|--------------------------------------------------------------------------|
D|--------------------------------------------------------------------------|
A|--------------------------------------------------------------------------|
E|--------------------------------------------------------------------------|

Guitar 1 (1:01)
e|--------------------------------------------------------------------------|
B|--------------------------------------------------------------------------|
G|--------------------------------------------------------------------------|
D|---11^(12)~11^(12)-9------------------------------------------------------|
A|--------------------------------------------------------------------------|
E|--------------------------------------------------------------------------|

Guitar 2
e|-----------------------------------7--------------------------------------|
B|--------------------------------------------------------------------------|
G|-------------------------------5------------------------------------------|
D|--------------------------------------------------------------------------|
A|--------------------------------------------------------------------------|
E|--------------------------------------------------------------------------|

Guitar 1 (1:06)
e|--------------------------------------------------------------------------|
B|--------------------------------------------------------------------------|
G|--------------------------------------------------------------------------|
D|---11^(12)~11^(12)-9------------------------------------------------------|
A|--------------------------------------------------------------------------|
E|--------------------------------------------------------------------------|

Guitar 2
e|-----------------------------------------12-----10--12--------------------|
B|-------------------------------------12-----12----------------------------|
G|--------------------------------------------------------------------------|
D|--------------------------------------------------------------------------|
A|--------------------------------------------------------------------------|
E|--------------------------------------------------------------------------|

Guitar 1 (1:11)
e|--------------------------------------------------------------------------|
B|--------------------------------------------------------------------------|
G|--------------------------------------------------------------------------|
D|---11^(12)~11^(12)-9------------------------------------------------------|
A|--------------------------------------------------------------------------|
E|--------------------------------------------------------------------------|

Guitar 2
e|-----------------------------------7--------------------------------------|
B|--------------------------------------------------------------------------|
G|-------------------------------5------------------------------------------|
D|--------------------------------------------------------------------------|
A|--------------------------------------------------------------------------|
E|--------------------------------------------------------------------------|

Guitar 1 (1:16)
e|--------------------------------------------------------------------------|
B|--------------------------------------------------------------------------|
G|--------------------------------------------------------------------------|
D|---11^(12)~11^(12)-9------------------------------------------------------|
A|--------------------------------------------------------------------------|
E|--------------------------------------------------------------------------|

Guitar 2
e|-----------------------------------------12----10-------------------------|
B|-------------------------------------12-----12-----10---------------------|
G|--------------------------------------------------------------------------|
D|--------------------------------------------------------------------------|
A|--------------------------------------------------------------------------|
E|--------------------------------------------------------------------------|

Chorus (1:21)

Guitar 2 (Listen for strum patterns)
e|--------------------------------------------------------------------------|
B|--------------------------------------------------------------------------|
G|---7---7------------------------------------------------------------------|
D|---7---7---9---7---5---2--------------------------------------------------|
A|---5---4---9---7---5---2--------------------------------------------------|
E|-----------7---5---3---0-------------------------------------------------|

Guitar 1
e|--------------------------------------------------------------------------|
B|--10--10--10--10--10--10--10--10------------------------------------------|
G|-------------------------------------------7--7--7--9--9--9--9--7---------|
D|--------------------------------------------------------------------------|
A|--------------------------------------------------------------------------|
E|--------------------------------------------------------------------------|

e|--------------------------------------------------------------------------|
B|--10--10--10--10--10--10--/12--12-----------------------------------------|
G|--------------------------------------------7--7--7--9--9--11--9--7-------|
D|--------------------------------------------------------------------------|
A|--------------------------------------------------------------------------|
E|--------------------------------------------------------------------------|

e|--------------------------------------------------------------------------|
B|-------------10--10--10--10--10--10---------------------------------------|
G|--7--7--7---------------------------------9--9--9--9--9--7----------------|
D|--------------------------------------------------------------9-----------|
A|--------------------------------------------------------------------------|
E|--------------------------------------------------------------------------|

Verse (1:41)

(Bass)

e|--------------------------------------------------------------------------|
B|--------------------------------------------------------------------------|
G|--------------------------------------------------------------------------|
D|--------------------------------------------------------------------------|
A|--------------------------------------------------------------------------|
E|--------------------------------------------------------------------------|

Guitar 1 (1:46)
e|--------------------------------------------------------------------------|
B|--------------------------------------------------------------------------|
G|--------------------------------------------------------------------------|
D|--------------------------------------------------------------------------|
A|--------------------------------------------------------------------------|
E|--------------------------------------------------------------------------|

Guitar 2
e|-----------------------------------7--------------------------------------|
B|--------------------------------------------------------------------------|
G|-------------------------------5------------------------------------------|
D|--------------------------------------------------------------------------|
A|--------------------------------------------------------------------------|
E|--------------------------------------------------------------------------|

Guitar 2 (1:53)

e|----------------5--7-------------------------------------7----------------|
B|------------0---------7-------------------------------7-------------------|
G|-----7--6-----------------------------------------------------------------|
D|--------------------------------------------------------------------------|
A|--------------------------------------------------------------------------|
E|--------------------------------------------------------------------------|

Guitar 1 (1:56)
e|--------------------------------------------------------------------------|
B|--------------------------------------------------------------------------|
G|--------------------------------------------------------------------------|
D|---11^(12)~11^(12)-9------------------------------------------------------|
A|--------------------------------------------------------------------------|
E|--------------------------------------------------------------------------|

Guitar 1 (2:01)
e|--------------------------------------------------------------------------|
B|--------------------------------------------------------------------------|
G|--------------------------------------------------------------------------|
D|---11^(12)~11^(12)-9------------------------------------------------------|
A|--------------------------------------------------------------------------|
E|--------------------------------------------------------------------------|

Guitar 2 (2:04)
e|------------------------------------------12-----10---12------------------|
B|-------------------------------------12-----12----------------------------|
G|--------------------------------------------------------------------------|
D|--------------------------------------------------------------------------|
A|--------------------------------------------------------------------------|
E|--------------------------------------------------------------------------|

Guitar 1 (2:06)
e|--------------------------------------------------------------------------|
B|--------------------------------------------------------------------------|
G|--------------------------------------------------------------------------|
D|---11^(12)~11^(12)-9------------------------------------------------------|
A|--------------------------------------------------------------------------|
E|--------------------------------------------------------------------------|

Guitar 2
e|-----------------------------------7--------------------------------------|
B|--------------------------------------------------------------------------|
G|-------------------------------5------------------------------------------|
D|--------------------------------------------------------------------------|
A|--------------------------------------------------------------------------|
E|--------------------------------------------------------------------------|

Guitar 1 (2:11)
e|--------------------------------------------------------------------------|
B|--------------------------------------------------------------------------|
G|--------------------------------------------------------------------------|
D|---11^(12)~11^(12)-9------------------------------------------------------|
A|--------------------------------------------------------------------------|
E|--------------------------------------------------------------------------|

Guitar 2
e|------------------------------------------12-----10-----------------------|
B|-------------------------------------12-----12-----10---------------------|
G|--------------------------------------------------------------------------|
D|--------------------------------------------------------------------------|
A|--------------------------------------------------------------------------|
E|--------------------------------------------------------------------------|

Chorus (2:16)

Guitar 2 (Listen for strum patterns)
e|--------------------------------------------------------------------------|
B|--------------------------------------------------------------------------|
G|---7---7------------------------------------------------------------------|
D|---7---7---9---7---5---7---9---7---5---7---9---7---5---7------------------|
A|---5---4---9---7---5---7---9---7---5---7---9---7---5---7------------------|
E|-----------7---5---3---5---7---5---3---5---7---5---3---5------------------|

Guitar 1
e|--------------------------------------------------------------------------|
B|--10--10--10--10--10--10--10--10------------------------------------------|
G|-------------------------------------------7--7--7--9--9--9--9--7---------|
D|--------------------------------------------------------------------------|
A|--------------------------------------------------------------------------|
E|--------------------------------------------------------------------------|

e|--------------------------------------------------------------------------|
B|--10--10--10--10--10--10--/12--12-----------------------------------------|
G|--------------------------------------------7--7--7--9--9--11--9--7-------|
D|--------------------------------------------------------------------------|
A|--------------------------------------------------------------------------|
E|--------------------------------------------------------------------------|

e|--------------------------------------------------------------------------|
B|-------------10--10--10--10--10--10---------------------------------------|
G|--7--7--7--------------------------------9--9--9--9--9--7--9-/11-11^(12)--|
D|--------------------------------------------------------------------------|
A|--------------------------------------------------------------------------|
E|--------------------------------------------------------------------------|

Guitar 2 (2:30)
e|--------------12--14--12--------------------------------------------------|
B|---14--15-----------------15----------------------------------------------|
G|----------------------------------16--------------------------------------|
D|--------------------------------------------------------------------------|
A|--------------------------------------------------------------------------|
E|--------------------------------------------------------------------------|


e|--------------------------------------------------------------------------|
B|--------------------------------------------------------------------------|
G|--11^(12)--11^(12)-11-9--9--9---------------------------------------------|
D|--------------------------------------------------------------------------|
A|--------------------------------------------------------------------------|
E|--------------------------------------------------------------------------|

e|--------------------------------------------------------------------------|
B|--10--10--10--10--10--10--/12--12-----------------------------------------|
G|--------------------------------------------9--9--9--9--9--7--9--11-------|
D|--------------------------------------------------------------------------|
A|--------------------------------------------------------------------------|
E|--------------------------------------------------------------------------|

Guitar 2 (2:41)
e|--------------12--14--12-------17-----------------------------------------|
B|---14--15-----------------15----------------------------------------------|
G|--------------------------------------------------------------------------|
D|--------------------------------------------------------------------------|
A|--------------------------------------------------------------------------|
E|--------------------------------------------------------------------------|

e|--------------------------------------------------------------------------|
B|--------------------------------------------------------------------------|
G|---11-11^(12)--11^(12)--11^(12)-11-9--9--9--------------------------------|
D|--------------------------------------------------------------------------|
A|--------------------------------------------------------------------------|
E|--------------------------------------------------------------------------|

e|--------------------------------------------------------------------------|
B|--10--10--10--10--10--10--/12--12-----------------------------------------|
G|-----------------------------------------------9--9--9--9--9--9--9--------|
D|--------------------------------------------------------------------------|
A|--------------------------------------------------------------------------|
E|--------------------------------------------------------------------------|

Bridge

Guitar 1 (2:51)
e|--------------------------------------------------------------------------|
B|---10-----------10-----------10------10-----------10--/12--12---10--------|
G|------------------------------------------------------/11--11---9---------|
D|-------11--12------11--12------11------11--12-----------------------------|
A|--------------------------------------------------------------------------|
E|--------------------------------------------------------------------------|

Guitar 2
e|--------------------------------------------------------------------------|
B|--15-----12---15--------12---15---------15------12---15-----/17-17--15----|
G|-----14------------14------------14---------14--------------/16-16--14----|
D|--------------------------------------------------------------------------|
A|--------------------------------------------------------------------------|
E|--------------------------------------------------------------------------| x3


Guitar 1 (3:06)
e|--------------------------------------------------------------------------|
B|--------------------------------------------------------------------------|
G|--11--12--11--9~------11--12--11------------------------------------------|
D|------------------------------------------12~-----------------------------|
A|--------------------------------------------------------------------------|
E|--------------------------------------------------------------------------|

Guitar 2
e|--------------------------------------------------------------------------|
B|---14--15--14---12~----14--15--14-----------------------------------------|
G|------------------------------------------14~-----------------------------|
D|--------------------------------------------------------------------------|
A|--------------------------------------------------------------------------|
E|--------------------------------------------------------------------------|

Guitar 1 (3:11)
e|--------------------------------------------------------------------------|
B|---10-----------10-----------10------10------------10-----/12--12--10-----|
G|----------------------------------------------------------/11--11---9-----|
D|------11---12------11--12--------11-------11---12-------------------------|
A|--------------------------------------------------------------------------|
E|--------------------------------------------------------------------------|

Guitar 2
e|--------------------------------------------------------------------------|
B|--15------12---15------12---15--------15--------12--15---------/17-17--15-|
G|------14------------14------------14------14-------------------/16-16--14-|
D|--------------------------------------------------------------------------|
A|--------------------------------------------------------------------------|
E|--------------------------------------------------------------------------| x3


Guitar 1 (3:26)
e|--------------------------------------------------------------------------|
B|--------------------------------------------------------------------------|
G|--11--12--11--9~------11--12--11------------------------------------------|
D|------------------------------------------12~-----------------------------|
A|--------------------------------------------------------------------------|
E|--------------------------------------------------------------------------|

Guitar 2
e|--------------------------------------------------------------------------|
B|---14--15--14---12~----14--15--14-----------------------------------------|
G|--------------------------------------------14~---------------------------|
D|--------------------------------------------------------------------------|
A|--------------------------------------------------------------------------|
E|--------------------------------------------------------------------------|

Chorus 

Guitar 1 (3:31)

e|--------------------------------------------------------------------------|
B|---10--10--10--10--10--10--10--10-----------------------------------------|
G|---------------------------------------------7--7--7--9--9--11--9--7------|
D|--------------------------------------------------------------------------|
A|--------------------------------------------------------------------------|
E|--------------------------------------------------------------------------|

e|--------------------------------------------------------------------------|
B|---10--10--10--10--10--10--12--12-----------------------------------------|
G|---------------------------------------------7--7--7--9--9--11--9--7------|
D|--------------------------------------------------------------------------|
A|--------------------------------------------------------------------------|
E|--------------------------------------------------------------------------|


Guitar 2 (3:41) (Listen for strum patterns)
e|--------------------------------------------------------------------------|
B|--------------------------------------------------------------------------|
G|--------------------------------------------------------------------------|
D|---5----7----9---7---9---12---9---7---9---7---5---------------------------|
A|---5----7----9---7---9---12---9---7---9---7---5---------------------------|
E|---3----5----7---5---7---10---7---5---7---5---3---------------------------| x2

Guitar 2 (4:01)
e|--------------------------------------------------------------------------|
B|--------------------------------------------------------------------------|
G|--------------------------------------------------------------------------|
D|----5----7----------------------------------------------------------------|
A|----5----7----------------------------------------------------------------|
E|----3----5----------------------------------------------------------------|

Guitar 1 (4:03)
e|--------------12--14--12-------17-----------------------------------------|
B|---14--15-----------------15----------------------------------------------|
G|--------------------------------------------------------------------------|
D|--------------------------------------------------------------------------|
A|--------------------------------------------------------------------------|
E|--------------------------------------------------------------------------|

Last Chorus

Guitar 2 (4:06) (Listen for strum patterns)

e|--------------------------------------------------------------------------|
B|--------------------------------------------------------------------------|
G|----7-----------------7---------------------------------------------------|
D|----7-----5-----7-----7-----5-----7-----9-----5-----7---------------------|
A|----5-----5-----7-----5-----5-----7-----9-----5-----7---------------------|
E|----------3-----5-----------3-----5-----7-----3-----5---------------------| x2

Guitar 1 (4:06) (Listen for strum patterns)

e|--------------------------------------------------------------------------|
B|--------------------------------------------------------------------------|
G|---9---11--9--11---12---11--9---7---9---7---------------------------------|
D|---x---x---x---x---x----x---x---x---x---x---------------------------------|
A|---7---9---7---9---10---9---7---5---7---5---------------------------------|
E|--------------------------------------------------------------------------| x4

e|--------------------------------------------------------------------------|
B|--------------------------------------------------------------------------|
G|---9--11---9---11--12--11---9---7---9---11--9---7-------------------------|
D|---x---x---x---x---x----x---x---x---x---x---x---x-------------------------|
A|---7---9---7---9---10---9---7---5---7---9---7---5-------------------------|
E|--------------------------------------------------------------------------|


e|--------------------------------------------------------------------------|
B|--------------------------------------------------------------------------|
G|----7---6---7---6---7---6---4------12--11---9---11---9--------------------|
D|----x---x---x---x---x---x---x------x----x---x---x---x---------------------|
A|----5---4---5---4---5---4---2------10---9---7---9---7---------------------|
E|--------------------------------------------------------------------------|

End (Guitar 1 and 2)

e|--------------------------------------------------------------------------|
B|---(7)--------------------------------------------------------------------|
G|----7---------------------------------------------------------------------|
D|----7---------------------------------------------------------------------|
A|----5---------------------------------------------------------------------|
E|--------------------------------------------------------------------------|




************************************

| /   slide up
| \   slide down
| h   hammer-on
| p   pull-off
| ~   vibrato
| +   harmonic
| x   Mute note
| b   Bend
| pb  Pre-bend
| br  Bend release
| pbr Pre-bend release
| brb Bend release bend

************************************
Tap to rate this tab
# A B C D E F G H I J K L M N O P Q R S T U V W X Y Z