Song name
# A B C D E F G H I J K L M N O P Q R S T U V W X Y Z

My Chemical Romance - Na Na Na tab

I absolutely love this song, so I tried to tab it by using the game Rocksmith and my own ears...
Hope it's alright, rate it and comment your feedback? (No hate please, this is my 
first tab and if you wanna say it's crap, try and do it yourself.) 
It proberably is completely out but it's good to try :P

Here it is:


INTRO "The Future is Bulletproof" (play 2x)
e|---------------------------------------------------------------------------|
B|---------------------------------------------------------------------------|
G|---------------------------------------------------------------------------|
D|----------------------------------9----------------------------------------|
A|--11--11-9--11--11-9--11--11-9--11--11-9-----------------------------------|
E|-----------------------------------------11--11-9--11--11-9--11--11-9-11---|

e|---------------------------------------------------------------------------|
B|---------------------------------------------------------------------------|
G|-------------------------------------------------------12------------------|
D|-------------------------------------------------------13-(x7)-------------|
A|-9---------------------9-9---9-9-10-11--11-9-11--9-----13------------------|
E|----11-10-9--9-7-9-9-7-----11--------------------------11------------------|


VERSE 1 "Drugs! Gimme Drugs! Gimme Drugs..." (PALM MUTED)
e|---------------------------------------------------------------------------|
B|---------------------------------------------------------------------------|
G|---------------------------------------------------------------------------|
D|--13-(x16)--8-(x16)-7-6-(x8)-11-(x8)-12-13-(x9)-8-(x7)---------------------|
A|--11--------6-------5-4------9-------10-11------6--------------------------|
E|---------------------------------------------------------------------------|

"Love! Gimme Love! Gimme Love..."
e|---------------------------------------------------------------------------|
B|--13---------8-------7-6------11-------12-13------11-----------------------|
G|--13---------8-------7-6------11-------12-13------11-----------------------|
D|--13-(x16)---8-(x16)-7-6-(x8)-11-(x8)--12-13-(x9)-11-(x7)------------------|
A|--11---------6-------5-4------9--------10-11------9------------------------|
E|---------------------------------------------------------------------------|


CHORUS "NA NA NA...From mall security..." (play 2x)
e|---------------------------------------------------------------------------|
B|---------------------------------------------------------------------------|
G|--------------------------11-11-9-11-11-9-11-11-9-11-13----11--------------|
D|-9-9-7-9-9-7-9-9-7-9-(x4)-9--9--9-9--9--9-9--9--9-9--11(x2)-9--------------|
A|-7-7-7-7-7-7-7-7-7-7-------------------------------------------------------|
E|---------------------------------------------------------------------------|

e|---------------------------------------------------------------------------|
B|---------------------------9------12---------------------------------------|
G|---------------------------9------12---------------------------------------|
D|-6-6-4-6-6-4-6-6-4-6-------9-(x4)-12-(x4)----------------------------------|
A|-4-4-4-4-4-4-4-4-4-4-(x4)--7------10---------------------------------------|
E|---------------------------------------------------------------------------|



MINI INTRO "...More! Gimme More! Gimme More!"
e|----------------------------------------------------|
B|----------------------------------------------------|
G|----------------------6-4-6-4-----------------------|
D|---6-6-4-6-6-4-6-6-4--6-4-6-4--11-9-11-9-11-9-1-----|
A|---4-4-4-4-4-4-4-4-4--------------------------------|
E|----------------------------------------------------|
VERSE 2 "Oh let me tell you bout the sad man..."
e|---------------------------------------------------------------------------|
B|--13---------8-------7-6------11-------12-13------11-----------------------|
G|--13---------8-------7-6------11-------12-13------11-----------------------|
D|--13-(x4)----8--(x4)-7-6-(x4)-11-(x4)--12-13-(x5)-11-(x7)------------------|
A|--11---------6-------5-4------9--------10-11------9------------------------|
E|---------------------------------------------------------------------------|


[CHORUS 2 "You run..." (Re-do Chorus 1)]


BRIDGE "Right Here, Right Now..." (play 2x)
e|-----------------------------------------|
B|-----------------------------------------|
G|-----------------------------------------|
D|-6-5-4-3---------------------------------|
A|---------3-5-6--5------------------------|
E|---------------3-2-3---------------------|

"Everybody wants to change the world..." (Don't know the Tapping for this)
e|---------------------------------------------------------------------------|
B|--------------------------------------------13-----------------------------|
G|--------------------------------------------13-----------------------------|
D|------------------------------2-(x4)--------13-----------------------------|
A|--6-(x4)-5-(x4)-4-(x4)-3-(x4)-2------4-(x4)-11-(x32)-----------------------|
E|--4------3------2------1-------------2-------------------------------------|


SOLO
e|---------------------------------------------------------------------------------------| 
B|------------------------------------------------------------------------------11-12-12-|
G|-------------------------------11-11----------------------------10-11-12-13-13---------|
D|-13-13-11-13-13-11h13-13-11-13-------13-11-11-9-11-11-9-11-9-11------------------------|
A|---------------------------------------------------------------------------------------|
E|---------------------------------------------------------------------------------------|

e|--------------------------------------------------------------------------|
B|-11-12-14-14br-12-10b-13b-14b-18b-16b-------------------------------------|
G|--------------------------------------------------------------------------|
D|--------------------------------------------------------------------------|
A|--------------------------------------------------------------------------|
E|--------------------------------------------------------------------------|


[CHORUS "Make no apology..."(Play Chorus 1 only 1x then go to END)]


END                                             
e|-------------------------------------------------------------------------------------|
B|------------------------------------------------11~-8~-------------------------------|
G|--------11-(x7)-13-(x3)--------9~-12~-9~-12~-9~-11~-9~-------------------------------|
D|-9-(x8)-9-------11------6-(x8)-7~-10~-7~-10~-7~-----9~-------------------------------|
A|-7----------------------4---------------------------7~-------------------------------|
E|-------------------------------------------------------------------------------------|
Tap to rate this tab
 
# A B C D E F G H I J K L M N O P Q R S T U V W X Y Z