Song name
# A B C D E F G H I J K L M N O P Q R S T U V W X Y Z

My Chemical Romance - Surrender The Night tab

-------------------------------------------------------------------------------
                   Surrender The Night - My Chemical Romance 
-------------------------------------------------------------------------------
Tabbed by: b.heaslip
E-mail: b.heaslip@hotmail.com

There was a request for this song so I decided to ear it out the best 
I could. I hope you enjoy and please let me know if there are any mistakes.

Tuning: Drop D 
INTRO
e|---------------------------------------------------------------------------|
B|---------------------------------------------------------------------------|
G|-9-9-9-9-9-9-9-9---8-8-8---6-6-6---8--9-9-9-9-9-9-9-9--11--6-6-6-6-6-6-6-6-|
D|---------------------------------------------------------------------------|
A|---------------------------------------------------------------------------|
D|---------------------------------------------------------------------------|

e|---------------------------------------------------------------------------|
B|---------------------------------------------------------------------------|
G|-13-13-13-13-13-13-13-13---11-11-11---9-9-9--6-6---9-9-9-9-9-9-9-9--11--6-6|
D|---------------------------------------------------------------------------|
A|---------------------------------------------------------------------------|
D|---------------------------------------------------------------------------|

e|---------------------------------------------------------------------------|
B|---------------------------------------------------------------------------|
G|-6-6-6-6-6-6---------------------------------------------------------------|
D|---------------------------------------------------------------------------|
A|---------------------------------------------------------------------------|
D|---------------------------------------------------------------------------|

VERSE
e|---------------------------------------------------------------------------|
B|---------------------------------------------------------------------------|
G|--6-6-6-6-6-6-6-6----4-4-4---2-2-2-2-2-------4/6-6-6-4-4-4--4/6-6-6-4-4-4--|
D|--6-6-6-6-6-6-6-6----4-4-4---2-2-2-2-2---4---4/6-6-6-4-4-4--4/6-6-6-4-4-4--|
A|--4-4-4-4-4-4-4-4----2-2-2---0-0-0-0-0---4---2/4-4-4-2-2-2--2/4-4-4-2-2-2--|
D|-----------------------------------------4---------------------------------|

e|---------------------------------------------------------------------------|
B|---------------------------------------------------------------------------|
G|--6-6-6-6-6-6-6-6---4-4-4-4-4-4-4-4--2-2-2-2-2-2-2-2-------4/6-6-6-4-4-4---|
D|--6-6-6-6-6-6-6-6---4-4-4-4-4-4-4-4--2-2-2-2-2-2-2-2---4---4/6-6-6-4-4-4---|
A|--4-4-4-4-4-4-4-4---2-2-2-2-2-2-2-2--0-0-0-0-0-0-0-0---4---2/4-4-4-2-2-2---|
D|-------------------------------------------------------4-------------------|

PRE-CHORUS
e|---------------------------------------------------------------------------|
B|---------------------------------------------------------------------------|
G|--6-6-6-6-6-6-6-6---4-4-4-4-4-4-4-4--2-2-2-2-2-2-2-2-----------------------|
D|--6-6-6-6-6-6-6-6---4-4-4-4-4-4-4-4--2-2-2-2-2-2-2-2---4-4-4-4-4-4-4-4-----|X2
A|--4-4-4-4-4-4-4-4---2-2-2-2-2-2-2-2--0-0-0-0-0-0-0-0---4-4-4-4-4-4-4-4-----|
D|-------------------------------------------------------4-4-4-4-4-4-4-4-----|

CHORUS
e|---------------------------------------------------------------------------|
B|---------------------------------------------------------------------------|
G|--------------------------------4-4-4-4-4-4-4-4-4-4-4-4-4-4-4--------------|
D|-2-2-2-2-2-2-2-2-2-2-2-2-2-2-2--4-4-4-4-4-4-4-4-4-4-4-4-4-4-4--------------|
A|-2-2-2-2-2-2-2-2-2-2-2-2-2-2-2--2-2-2-2-2-2-2-2-2-2-2-2-2-2-2--------------|
D|-2-2-2-2-2-2-2-2-2-2-2-2-2-2-2---------------------------------------------|

e|---------------------------------------------------------------------------|
B|---------------------------------------------------------------------------|
G|-6-6-6-6-6-6-6-6-6-6-6-6-6-6-6---6-6-6-6-6-6-6-6-6-6-6-6-6-6-6-------------|
D|-6-6-6-6-6-6-6-6-6-6-6-6-6-6-6---6-6-6-6-6-6-6-6-6-6-6-6-6-6-6-------------|
A|-4-4-4-4-4-4-4-4-4-4-4-4-4-4-4---4-4-4-4-4-4-4-4-4-4-4-4-4-4-4-------------|
D|---------------------------------------------------------------------------|

e|---------------------------------------------------------------------------|
B|---------------------------------------------------------------------------|
G|--------------------------------4-4-4-4-4-4-4-4-4-4-4-4-4-4-4--------------|
D|-7-7-7-7-7-7-7-7-7-7-7-7-7-7-7--4-4-4-4-4-4-4-4-4-4-4-4-4-4-4--------------|
A|-7-7-7-7-7-7-7-7-7-7-7-7-7-7-7--2-2-2-2-2-2-2-2-2-2-2-2-2-2-2--------------|
D|-7-7-7-7-7-7-7-7-7-7-7-7-7-7-7---------------------------------------------|

VERSE 2
e|---------------------------------------------------------------------------|
B|---------------------------------------------------------------------------|
G|--6-6-6-6-6-6-6-6----4-4-4---2-2-2-2-2-------4/6-6-6-4-4-4--4/6-6-6-4-4-4--|
D|--6-6-6-6-6-6-6-6----4-4-4---2-2-2-2-2---4---4/6-6-6-4-4-4--4/6-6-6-4-4-4--|
A|--4-4-4-4-4-4-4-4----2-2-2---0-0-0-0-0---4---2/4-4-4-2-2-2--2/4-4-4-2-2-2--|
D|-----------------------------------------4---------------------------------|

e|---------------------------------------------------------------------------|
B|---------------------------------------------------------------------------|
G|--6-6-6-6-6-6-6-6---4-4-4-4-4-4-4-4--2-2-2-2-2-2-2-2-------4/6-6-6-4-4-4---|
D|--6-6-6-6-6-6-6-6---4-4-4-4-4-4-4-4--2-2-2-2-2-2-2-2---4---4/6-6-6-4-4-4---|
A|--4-4-4-4-4-4-4-4---2-2-2-2-2-2-2-2--0-0-0-0-0-0-0-0---4---2/4-4-4-2-2-2---|
D|-------------------------------------------------------4-------------------|

PRE-CHORUS
e|---------------------------------------------------------------------------|
B|---------------------------------------------------------------------------|
G|--6-6-6-6-6-6-6-6---4-4-4-4-4-4-4-4--2-2-2-2-2-2-2-2-----------------------|
D|--6-6-6-6-6-6-6-6---4-4-4-4-4-4-4-4--2-2-2-2-2-2-2-2---4-4-4-4-4-4-4-4-----|X2
A|--4-4-4-4-4-4-4-4---2-2-2-2-2-2-2-2--0-0-0-0-0-0-0-0---4-4-4-4-4-4-4-4-----|
D|-------------------------------------------------------4-4-4-4-4-4-4-4-----|

CHORUS 2
e|---------------------------------------------------------------------------|
B|---------------------------------------------------------------------------|
G|--------------------------------4-4-4-4-4-4-4-4-4-4-4-4-4-4-4--------------|
D|-2-2-2-2-2-2-2-2-2-2-2-2-2-2-2--4-4-4-4-4-4-4-4-4-4-4-4-4-4-4--------------|
A|-2-2-2-2-2-2-2-2-2-2-2-2-2-2-2--2-2-2-2-2-2-2-2-2-2-2-2-2-2-2--------------|
D|-2-2-2-2-2-2-2-2-2-2-2-2-2-2-2---------------------------------------------|

e|---------------------------------------------------------------------------|
B|---------------------------------------------------------------------------|
G|-6-6-6-6-6-6-6-6-6-6-6-6-6-6-6---6-6-6-6-6-6-6-6-6-6-6-6-6-6-6-------------|
D|-6-6-6-6-6-6-6-6-6-6-6-6-6-6-6---6-6-6-6-6-6-6-6-6-6-6-6-6-6-6-------------|
A|-4-4-4-4-4-4-4-4-4-4-4-4-4-4-4---4-4-4-4-4-4-4-4-4-4-4-4-4-4-4-------------|
D|---------------------------------------------------------------------------|

e|---------------------------------------------------------------------------|
B|---------------------------------------------------------------------------|
G|--------------------------------4-4-4-4-4-4-4-4-4-4-4-4-4-4-4--------------|
D|-7-7-7-7-7-7-7-7-7-7-7-7-7-7-7--4-4-4-4-4-4-4-4-4-4-4-4-4-4-4--------------|
A|-7-7-7-7-7-7-7-7-7-7-7-7-7-7-7--2-2-2-2-2-2-2-2-2-2-2-2-2-2-2--------------|
D|-7-7-7-7-7-7-7-7-7-7-7-7-7-7-7---------------------------------------------|

e|---------------------------------------------------------------------------|
B|---------------------------------------------------------------------------|
G|-6-6-6-6-6-6-6-6-6-6-6-6-6-6-6---------------------------------------------|
D|-6-6-6-6-6-6-6-6-6-6-6-6-6-6-6---2-2-2-2-2-2-2-2-2-2-2-2-2-2-2-------------|
A|-4-4-4-4-4-4-4-4-4-4-4-4-4-4-4---2-2-2-2-2-2-2-2-2-2-2-2-2-2-2-------------|
D|---------------------------------2-2-2-2-2-2-2-2-2-2-2-2-2-2-2-------------|

e|---------------------------------------------------------------------------|
B|---------------------------------------------------------------------------|
G|--------------------------------4-4-4-4-4-4-4-4-4-4-4-4-4-4-4--------------|
D|-7-7-7-7-7-7-7-7-7-7-7-7-7-7-7--4-4-4-4-4-4-4-4-4-4-4-4-4-4-4--------------|
A|-7-7-7-7-7-7-7-7-7-7-7-7-7-7-7--2-2-2-2-2-2-2-2-2-2-2-2-2-2-2--------------|
D|-7-7-7-7-7-7-7-7-7-7-7-7-7-7-7---------------------------------------------|

INTERLUDE
e|---------------------------------------------------------------------------|
B|---------------------------------------------------------------------------|
G|--6-6-6---8-8-8---9-9-9--9--9-8--6-----------------------------------------|
D|--6-6-6---8-8-8---9-9-9----------------------------------------------------|X7
A|--4-4-4---6-6-6---7-7-7----------------------------------------------------|
D|---------------------------------------------------------------------------|

e|---------------------------------------------------------------------------|
B|---------------------------------------------------------------------------|
G|--6-6-6---8-8-8---9-9-9--11-11-11---13-13-13--14-14-14---------------------|
D|--6-6-6---8-8-8---9-9-9--11-11-11---13-13-13--14-12-12---------------------|
A|--4-4-4---6-6-6---7-7-7--9--9--9----11-11-11--12-12-12---------------------|
D|---------------------------------------------------------------------------|

CHORUS
e|---------------------------------------------------------------------------|
B|---------------------------------------------------------------------------|
G|--------------------------------4-4-4-4-4-4-4-4-4-4-4-4-4-4-4--------------|
D|-2-2-2-2-2-2-2-2-2-2-2-2-2-2-2--4-4-4-4-4-4-4-4-4-4-4-4-4-4-4--------------|
A|-2-2-2-2-2-2-2-2-2-2-2-2-2-2-2--2-2-2-2-2-2-2-2-2-2-2-2-2-2-2--------------|
D|-2-2-2-2-2-2-2-2-2-2-2-2-2-2-2---------------------------------------------|

e|---------------------------------------------------------------------------|
B|---------------------------------------------------------------------------|
G|-6-6-6-6-6-6-6-6-6-6-6-6-6-6-6---6-6-6-6-6-6-6-6-6-6-6-6-6-6-6-------------|
D|-6-6-6-6-6-6-6-6-6-6-6-6-6-6-6---6-6-6-6-6-6-6-6-6-6-6-6-6-6-6-------------|
A|-4-4-4-4-4-4-4-4-4-4-4-4-4-4-4---4-4-4-4-4-4-4-4-4-4-4-4-4-4-4-------------|
D|---------------------------------------------------------------------------|

e|---------------------------------------------------------------------------|
B|---------------------------------------------------------------------------|
G|--------------------------------4-4-4-4-4-4-4-4-4-4-4-4-4-4-4--------------|
D|-7-7-7-7-7-7-7-7-7-7-7-7-7-7-7--4-4-4-4-4-4-4-4-4-4-4-4-4-4-4--------------|
A|-7-7-7-7-7-7-7-7-7-7-7-7-7-7-7--2-2-2-2-2-2-2-2-2-2-2-2-2-2-2--------------|
D|-7-7-7-7-7-7-7-7-7-7-7-7-7-7-7---------------------------------------------|


Sorry not to sure about the end of this song ..theres a little solo in here then
it goes to the OUTRO


e|---------------------------------------------------------------------------|
B|---------------------------------------------------------------------------|
G|-9-9-9-9-9-9-9-9--8-8-8--6-6-6-6-6--8--9-9-9-9-9-9-9-9--11--6-6-6-6-6-6-6-6|
D|---------------------------------------------------------------------------|
A|-7-7-7-7-7-7-7-7--6-6-6--4-4-4-4-4--6--7-7-7-7-7-7-7-7--9---4-4-4-4-4-4-4-4|
D|---------------------------------------------------------------------------|


e|---------------------------------------------------------------------------|
B|---------------------------------------------------------------------------|
G|--13-13-13-13-13-13-13-13---11-11-11--9-9-9--6-6--9-9-9-9-9-9-9--11--6-6-6-|
D|---------------------------------------------------------------------------|
A|--11-11-11-11-11-11-11-11---9--9--9---7-7-7--4-4--7-7-7-7-7-7-7--9---4-4-4-|
D|---------------------------------------------------------------------------|

e|---------------------------------------------------------------------------|
B|---------------------------------------------------------------------------|
G|6-6-6-6-6------------------------------------------------------------------|
D|---------------------------------------------------------------------------|
A|4-4-4-4-4------------------------------------------------------------------|
D|---------------------------------------------------------------------------|

************************************

| /   slide up
| \   slide down
| h   hammer-on
| p   pull-off
| ~   vibrato
| +   harmonic
| x   Mute note
| b   Bend
| pb  Pre-bend
| br  Bend release
| pbr Pre-bend release
| brb Bend release bend

************************************
Tap to rate this tab
# A B C D E F G H I J K L M N O P Q R S T U V W X Y Z