Song name
# A B C D E F G H I J K L M N O P Q R S T U V W X Y Z

My Chemical Romance - Our Lady Of Sorrows tab

Song: Our Lady Of Sorrows
Band: My Chemical Romance
Album: I Brought You My Bullets, You Brought Me Your Love

The two tabs already for this song are pretty good, but I'm not sure whether they are 
right.  So I've taken some parts of both and added my own parts to them, so credit goes to 
other tab writters.
I'm not sure whether this is right and the bridge definatley needs some work. If you see 
parts that are wrong please post corrections on the comments.
Thankyou

Gtr I: Frank Iero: Standard Tuning (e,B,G,D,A,E)
Gtr II: Ray Toro: Standard Tuning (e,B,G,D,A,E)

Intro
Gtr I
e:|--------------------------------------------------------|
B:|--------------------------------------------------------|
G:|--------------------------------------------------------|
D:|11-----------1110-----------7------------710------------|
A:|11-----------1110-----------7------------710------------|
E:|9 999-999-99-9 8 888-888-88-5 555-555-55-5 8 888-888-88-|
PM * *** *** ** * * *** *** ** * *** *** ** * * *** *** **

Then
Both Grt I and Grt II
e:|-------------------------------------------------------|
B:|-------------------------------------------------------|
G:|-------------------------------------------------------|
D:|11-----------10-----------7 -----------1010101010101010|
A:|11-----------10-----------7 -----------1010101010101010|
E:|9 999-999-99-8 888-888-88-5 555-555-55-8 8 8 8 8 8 8 8 |
PM                                        * * * * * * * *


Verse
Grt I
e:|--------------------------------------------------------|x4
B:|--------------------------------------------------------|
G:|--------------------------------------------------------|
D:|11111111111111111010101010101010777777771010101010101010|/
A:|11111111111111111010101010101010777777771010101010101010|/
E:| 9 9 9 9 9 9 9 9 8 8 8 8 8 8 8 855555555 8 8 8 8 8 8 8 8|/
"We could perfect..."

GrtII
e:|-------------------|
B:|-------------------|
G:|-------------------|
D:|9-8-9-11---9-8-9-11|
A:|x-x-x-x ---x-x-x-x |
E:|7-6-7-9 ---7-6-7-9 |
"Laciration gravity..."

e:|----------------|
B:|----------------|
G:|----------------|
D:|9-8-9-11---9-8-9|
A:|x-x-x-x ---x-x-x|
E:|7-6-7-9 ---7-6-7|
"Understand it has to be this way"


Chorus I
Both Grt I and Grt II
e:|----------------|x2
B:|----------------|
G:|66------66----55|
D:|6666774466667755|
A:|4466774444667733|
E:|--445522--4455--|
"Stand"


Repeat Verse


Chorus II
Both Grt I amd Grt II
e:|----------------------------|
B:|----------------------------|
G:|66------66----5566------66--|
D:|6666774466667755666677446666|
A:|4466774444667733446677444466|
E:|--445522--4455----445522--44|
PM                         
"Stand..."             "...And never"

then
e:|---------|
B:|---------|
G:|-666-666-|
D:|-666-666-|
A:|-444-444-|
E:|---------|
PM  *** ***


Bridge
Grt I
e:|----------------|x2
B:|----------------|
G:|666-222-----4455|
D:|666-222-444-4455|
A:|444-000-444-2233|
E:|--------222-----|
"Trust"

then
e:|--------------------------------|
B:|--------------------------------|
G:|222-444-666-66---222-444-666----|
D:|222-444-666-6666-222-444-666-666|
A:|000-222-444-4466-000-222-444-666|
E:|--------------44-------------444|
"Stand"

GrtII
e:|-------------------------------------|x2
B:|-------------------------------------|
G:|9-8-9~9--9-8-9~9--9-8-9~9--9-8-9~9-86|
D:|-------------------------------------|
A:|-------------------------------------|
E:|-------------------------------------|
"Trust"

then
e:|---------|x3
B:|9-8-9-999|
G:|---------|
D:|---------|
A:|---------|
E:|---------|
PM       ***
"stand"

then
e:|-----------10-------------|
B:|----9h11h12--12p11p9------|
G:|9h11----------------11p9p8|
D:|--------------------------|
A:|--------------------------|
E:|--------------------------|
"Take my fucking...

then
e:|---------|x3
B:|9-8-9-999|
G:|---------|
D:|---------|
A:|---------|
E:|---------|
PM       ***
"...hand"


Chorus III
Both Grt I and Grt II
e:|----------------|x3
B:|----------------|
G:|66------66----55|
D:|6666774466667755|
A:|4466774444667733|
E:|--445522--4455--|
"Stand"


Outro
Both Grt I and Grt II
e:|-------------------|
B:|-------------------|
G:|6-------6-----5-666|
D:|6-6-7-4-6-6-7-5-666|
A:|4-6-7-4-4-6-7-3-444|
E:|--4-5-2---4-5------|
"Just because my hands around your throat"
Tap to rate this tab
# A B C D E F G H I J K L M N O P Q R S T U V W X Y Z