Song name
# A B C D E F G H I J K L M N O P Q R S T U V W X Y Z

My Chemical Romance - Its Not A Fashion Statement Its A Deathwish tab

I do alittle of modifying on the tabs from the version 1 and 2...most of the parts r
the same..just that i add in some of the details to it...enjoy mates...

Its Not A Fashion Statement Its A Deathwish - My Chemical Romance
Tuning : EADGBe

Intro
e|--------------------------------------------------------------------------|
B|--------------------------------------------------------------------------|
G|--6-6-6-6-6-6-6-6-6--6-6-6-6-8-9-8-6--9-9-9-8-8-8-8-8--6-6-8-6-5-5-5-5-5--|
D|--x-x-x-x-x-x-x-x-x--x-x-x-x-x-x-x-x--x-x-x-x-x-x-x-x--x-x-x-x-x-x-x-x-x--|
A|--4-4-4-4-4-4-4-4-4--x-x-x-x-x-x-x-x--x-x-x-x-x-x-x-x--x-x-x-x-x-x-x-x-x--|
E|---------------------5-5-5-5-5-5-5-5--7-7-7-7-7-7-7-7--4-4-4-4-4-4-4-4-4--|

e|--------------------------------------------------------------------------|
B|--------------------------------------------------------------------------|
G|--6-6-6-6-6-6-6-6-6--6-6-6-6-8-9-8-6--9-9-9-8-8-8-8-8---------------------|
D|--x-x-x-x-x-x-x-x-x--x-x-x-x-x-x-x-x--x-x-x-x-x-x-x-x--6-6-6-6-6-6-6-6-6--|
A|--4-4-4-4-4-4-4-4-4--x-x-x-x-x-x-x-x--x-x-x-x-x-x-x-x--6-6-6-6-6-6-6-6-6--|
E|---------------------5-5-5-5-5-5-5-5--7-7-7-7-7-7-7-7--4-4-4-4-4-4-4-4-4--|
PM                                                       ..................

Intro 2
e|--------------------------------------------------------------------------|
B|--------------------------------------------------------------------------|
G|-9-9-9-9-9-9-9-9-9-8-9-9-9-9-9-9-9-9-9-11--13-13-13-13-13-13-13-13-13-11--|
D|-x-x-x-x-x-x-x-x-x-x-x-x-x-x-x-x-x-x-x--x---x--x--x--x--x--x--x--x--x--x--|
A|-7-7-7-7-7-7-7-7-7-6-7-7-7-7-7-7-7-7-7--9--11-11-11-11-11-11-11-11-11--9--|
E|--------------------------------------------------------------------------|

e|--------------------------------------------------------------------------|
B|--------------------------------------------------------------------------|
G|-9-9-9-9-9-9-11-11-11--8-8-8--6-6-6-6-6-6-6-6--9-9-9-13-13-13-13/14-13\---|
D|-x-x-x-x-x-x--x--x--x--x-x-x--x-x-x-x-x-x-x-x--x-x-x--x--x--x--x--x--x----|
A|-7-7-7-7-7-7--9--9--9--6-6-6--4-4-4-4-4-4-4-4--x-x-x-11-11-11-11/12-11\---|
E|-----------------------------------------------9-9-9----------------------|

Verse (X2)
e|------------------------------------------------------------------------------------|
B|------------------------------------------------------------------------------------|
G|-6-6-6-6-6-6-6-6-6-6----------------------------------------------------------------|
D|-6-6-6-6-6-6-6-6-6-6--7-7-7-7-7-7-7-7-7-7--9-9-9-9-9-9-9-9-9-9--xx-6-x-7-x-6-x-7-x-6|
A|-4-4-4-4-4-4-4-4-4-4--7-7-7-7-7-7-7-7-7-7--9-9-9-9-9-9-9-9-9-9--xx-6-x-7-x-6-x-7-x-6|
E|----------------------5-5-5-5-5-5-5-5-5-5--7-7-7-7-7-7-7-7-7-7--xx-4-x-5-x-4-x-5-x-4|
("do you remember back when we first met...")

Pre-Chorus
e|-------------------------------------------------------------------------------------------|
B|-------------------------------------------------------------------------------------------|
G|-------------------------------------------------------------------------------------------|
D|-7-7-7-7-7-7-7-7-7-7-7--9-9-9-9-9-9-9-9-9-9-9--6-6-6-6-6-6-6-6-6-6-6--7-7-7-7-7-7-7-7-7-7-7|
A|-7-7-7-7-7-7-7-7-7-7-7--9-9-9-9-9-9-9-9-9-9-9--6-6-6-6-6-6-6-6-6-6-6--7-7-7-7-7-7-7-7-7-7-7|
E|-5-5-5-5-5-5-5-5-5-5-5--7-7-7-7-7-7-7-7-7-7-7--4-4-4-4-4-4-4-4-4-4-4--5-5-5-5-5-5-5-5-5-5-5|
("the damage you've inflicted...")

Chorus 1
e|-------------------------------------------------------|
B|-------------------------------------------------------|
G|-6-6-6-6-6-6-8-8-8-9-9-9-9--4-4-4-4-4-4-8-8-8-9-9-9-9--|
D|-x-x-x-x-x-x-x-x-x-x-x-x-x--x-x-x-x-x-x-x-x-x-x-x-x-x--|
A|-4-4-4-4-4-4-6-6-6-7-7-7-7--2-2-2-2-2-2-6-6-6-7-7-7-7--|
E|-------------------------------------------------------|
          ("I'm coming back from the dead...")

e|-----------------------------------------------------|
B|-----------------------------------------------------|
G|-----------------------------------------------------|
D|-6-6-6-6-6-6-6-6-6-6-6-6--6-7-9-11-9/11\9--7----7-9--|
A|-6-6-6-6-6-6-6-6-6-6-6-6--x-x-x--x-x-x--x--7----7-9--|
E|-4-4-4-4-4-4-4-4-4-4-4-4--4-5-7--9-7/9\-7--5----5-7--|
                      ("...the life you stole") 

e|-----------|
B|-----------|
G|-----------|
D|-----------|
A|-----------|
E|pick slide-|

e|--------------------------------------------------------------------------------------|
B|--------------------------------------------------------------------------------------|
G|-9-9-9-9-11--11-11-9-11-13-13-13-13-13-14-13-11-9-9-9-9-9-9-9-9-9-9-11-11-11-11-11-11-|
D|-x-x-x-x--x---x--x-x--x--x--x--x--x--x--x--x--x-x-x-x-x-x-x-x-x-x-x--x--x--x--x--x--x-|
A|-7-7-7-7--9---9--9-7--9-11-11-11-11-11/12-11--9-7-7-7-7-7-7-7-7-7-7--9--9--9--9--9--9-|
E|--------------------------------------------------------------------------------------|
				("bright lights that won't kill me now...")

e|--------------------------------------------------------------------------|
B|--------------------------------------------------------------------------|
G|--11-11-11-11-9-9-9-9-9-9-8-8-8-8-8-8-6-6-6-6-6-6-6-6---------------------|
D|--x--x--x--x--x-x-x-x-x-x-x-x-x-x-x-x-x-x-x-x-x-x-x-x--7-7-7-7-7-7-7-7-7--|
A|--9--9--9--9--7-7-7-7-7-7-6-6-6-6-6-6-4-4-4-4-4-4-4-4--7-7-7-7-7-7-7-7-7--|
E|-------------------------------------------------------5-5-5-5-5-5-5-5-5--|
                                                        ("just you and I..")

e|-------------------------------------------------------------------------------|
B|-------------------------------------------------------------------------------|
G|-----------------------------------6-6-6-6-6-6-6-6--9-9-9-13-13-13-13/14\13----|
D|-7-7-7-7--9-9-9-9-9-9-9-9-9-9-9-9--x-x-x-x-x-x-x-x--x-x-x--x--x--x--x--x\-x----|
A|-7-7-7-7--9-9-9-9-9-9-9-9-9-9-9-9--4-4-4-4-4-4-4-4--x-x-x-11-11-11-11/12\11----|
E|-5-5-5-5--7-7-7-7-7-7-7-7-7-7-7-7-------------------9-9-9----------------------|
      ("your starless eyes remain...")

Verse (X2)
e|------------------------------------------------------------------------------------|
B|------------------------------------------------------------------------------------|
G|-6-6-6-6-6-6-6-6-6-6----------------------------------------------------------------|
D|-6-6-6-6-6-6-6-6-6-6--7-7-7-7-7-7-7-7-7-7--9-9-9-9-9-9-9-9-9-9--xx-6-x-7-x-6-x-7-x-6|
A|-4-4-4-4-4-4-4-4-4-4--7-7-7-7-7-7-7-7-7-7--9-9-9-9-9-9-9-9-9-9--xx-6-x-7-x-6-x-7-x-6|
E|----------------------5-5-5-5-5-5-5-5-5-5--7-7-7-7-7-7-7-7-7-7--xx-4-x-5-x-4-x-5-x-4|

Pre-Chorus2
e|--------------------------------------------------------------------------|
B|--------------------------------------------------------------------------|
G|--------------------------------------------------------------------------|
D|-7-7-7-7-7-7-7-7-7-7-7-7-7--9-9-9-9-9-9-9-9-9-9-9-9-9--6--6--6--6--6--6---|
A|-x-x-x-x-x-x-x-x-x-x-x-x-x--x-x-x-x-x-x-x-x-x-x-x-x-x--6--6--6--6--6--6---|
E|-5-5-5-5-5-5-5-5-5-5-5-5-5--7-7-7-7-7-7-7-7-7-7-7-7-7--4--4--4--4--4--4---|
       ("I will avenge my ghost with every breath I take")

e|--------------------------------------------------|
B|--------------------------------------------------|
G|--------------------------------------------------|
D|-6--6--6--6--6--6--6--6----7--7--7--7--7--7--7--7-|
A|-6--6--6--6--6--6--6--6----7--7--7--7--7--7--7--7-|
E|-4--4--4--4--4--4--4--4----5--5--5--5--5--5--5--5-|

Chorus 2
e|-------------------------------------------------------|
B|-------------------------------------------------------|
G|-6-6-6-6-6-6-8-8-8-9-9-9-9--4-4-4-4-4-4-8-8-8-9-9-9-9--|
D|-x-x-x-x-x-x-x-x-x-x-x-x-x--x-x-x-x-x-x-x-x-x-x-x-x-x--|
A|-4-4-4-4-4-4-6-6-6-7-7-7-7--2-2-2-2-2-2-6-6-6-7-7-7-7--|
E|-------------------------------------------------------|
          ("I'm coming back from the dead...")

e|-------------------------------------------------|
B|-------------------------------------------------|
G|-------------------------11-13-11-13-11-13-14--9-|
D|-6-6-6-6-6-6-6-6-6-6-6-6--x--x--x--x--x--x--x--x-|
A|-6-6-6-6-6-6-6-6-6-6-6-6--9-11--9-11--9/11-12--7-|
E|-4-4-4-4-4-4-4-4-4-4-4-4-------------------------|
			("I'm back the life you stole.")

Outro 1 (x2)
e|---------------------------------------------------------------------------------|
B|---------------------------------------------------------------------------------|
G|-9-9-9-9-9-9-9-9-9-9-9-9-9-9-9-9-9-9-9-9-9-9--6-6-6-6-6-6-6-6--8-8-8-8--9-9-9-9--|
D|-x-x-x-x-x-x-x-x-x-x-x-x-x-x-x-x-x-x-x-x-x-x--x-x-x-x-x-x-x-x--x-x-x-x--x-x-x-x--|
A|-7-7-7-7-7-7-7-7-7-7-7-7-7-7-7-7-7-7-7-7-7-7--4-4-4-4-4-4-4-4--6-6-6-6--7-7-7-7--|
E|---------------------------------------------------------------------------------|

e|------------------------------------------------------------------------------|
B|------------------------------------------------------------------------------|
G|-13-13-13-13-13-13-13-13-11-11-11-11-11-11-11--9-9-9-9-9-9--11-11-11--13-13-13|
D|--x--x--x--x--x--x--x--x--x--x--x--x--x--x--x--x-x-x-x-x-x---x--x--x---x--x--x|
A|-11-11-11-11-11-11-11-11--9--9--9--9--9--9--9--7-7-7-7-7-7---9--9--9--11-11-11|
E|------------------------------------------------------------------------------|

e|------------------------------------------------------------------------------|
B|------------------------------------------------------------------------------|
G|-14-14-14-14-14-14--16-16-16--14-14-14--13-13-13-13-13-13--14-14-14-14--13--11|
D|-x--x--x--x--x--x---x--x--x---x--x--x---x--x--x--x--x--x---x--x--x--x---x----x|
A|-12-12-12-12-12-12--14-14-14--12-12-12--11-11-11-11-11-11--12-12-12-12--11---9|
E|------------------------------------------------------------------------------|

e|---------------------------|
B|---------------------------|
G|-9-9-9-9-9-9--8-8-8-8-8-8--|
D|-x-x-x-x-x-x--x-x-x-x-x-x--|
A|-7-7-7-7-7-7--6-6-6-6-6-6--|
E|---------------------------|

Outro 2
e|---------------------------------------------------------------------------------|
B|---------------------------------------------------------------------------------|
G|-9-9-9-9-9-9-9-9-9-9-9-9-9-9-9-9-9-9-9-9-9-9--6-6-6-6-6-6-6-6--8-8-8-8--9-9-9-9--|
D|-x-x-x-x-x-x-x-x-x-x-x-x-x-x-x-x-x-x-x-x-x-x--x-x-x-x-x-x-x-x--x-x-x-x--x-x-x-x--|
A|-7-7-7-7-7-7-7-7-7-7-7-7-7-7-7-7-7-7-7-7-7-7--4-4-4-4-4-4-4-4--6-6-6-6--7-7-7-7--|
E|---------------------------------------------------------------------------------|

e|------------------------------------------------|
B|------------------------------------------------|
G|-13-13-13-13-13-13-13-13-11-11-11-11------------|
D|--x--x--x--x--x--x--x--x--x--x--x--x----x-x-x-x-|
A|-11-11-11-11-11-11-11-11--9--9--9--9----x-x-x-x-|
E|----------------------------------------x-x-x-x-|

e|---------------------------------|
B|---------------------------------|
G|---------------------------------|
D|-9-9-9-9-9-9--11-11-11--13-13-13-|
A|-x-x-x-x-x-x---x--x--x---x--x--x-|
E|-7-7-7-7-7-7---9--9--9--11-11-11-|

e|------------------------------------------------------------------------------|
B|------------------------------------------------------------------------------|
G|-14-14-14-14-14-14--16-16-16--14-14-14--13-13-13-13-13-13--14-14-14-14--13--11|
D|-x--x--x--x--x--x---x--x--x---x--x--x---x--x--x--x--x--x---x--x--x--x---x----x|
A|-12-12-12-12-12-12--14-14-14--12-12-12--11-11-11-11-11-11--12-12-12-12--11---9|
E|------------------------------------------------------------------------------|

e|---------------------------|
B|---------------------------|
G|-9-9-9-9-9-9--8-8-8-8-8-8--|
D|-x-x-x-x-x-x--x-x-x-x-x-x--|
A|-7-7-7-7-7-7--6-6-6-6-6-6--|
E|---------------------------|

Outro Ending
e|--------------------------------------------|
B|--------------------------------------------|
G|-6-6-6-6-6-6-6-6---9-9-9-8-9\---------------|
D|-x-x-x-x-x-x-x-x---x-x-x-x-x\---------------|
A|-4-4-4-4-4-4-4-4---x-x-x-x-x\---------------|
E|-------------------9-9-9-9-9\---------------|


Tap to rate this tab
# A B C D E F G H I J K L M N O P Q R S T U V W X Y Z