Guitaretab - guitar tabs
Song name
# A B C D E F G H I J K L M N O P Q R S T U V W X Y Z

My Chemical Romance - Jack The Ripper Live tab

--------------------------------------------------------------------------           
JACK THE RIPPER (LIVE) - MyChEmIcAlRoMaNcE
-------------------------------------------------------------------------------
Tabbed by:James
Email:Afiguy176@yahoo.com
[ Tab from: http://www.guitaretab.com/m/my-chemical-romance/68753.html ]
yeah this is my first tab.
i listened to a live song so....yeah
its backround guitar. 
email me with all u think.
Tuning:standered
INTRO:
e|-2---2-----3----2----2----3----------------------------------------------|
B|-2---2-----2----3----2----2----------------------------------------------|
G|-2---2-----3----4----2----3----------------------------------------------|
D|-4---4-----0----4----4----0----------------------------------------------|
A|-4---4-----0----2----4----0----------------------------------------------|
E|-2---2-----0----2----2----0----------------------------------------------|
VERSE:
e|-2---22---2---22----3----33-----7----77--------------------------------]
B|-2---22---2---22----2----22-----7----77--------------------------------]
G|-2---22---2---22----3----33-----7----77--------------------------------]
D|-4---44---4---44----0----00-----9----99--------------------------------]X7
A|-4---44---4---44----0----00-----9----99--------------------------------]
E|-2---22---2---22----0----00-----7----77--------------------------------]
Pre-Chorus:
e|-2---22---2---22----3----33-----7----7777------------------------------]
B|-2---22---2---22----2----22-----7----7777------------------------------]
G|-2---22---2---22----3----33-----7----7777------------------------------]
D|-4---44---4---44----0----00-----9----9999------------------------------]
A|-4---44---4---44----0----00-----9----9999------------------------------]
E|-2---22---2---22----0----00-----7----7777------------------------------]
Chorus:
e|-------------------------------------------------------------------------|
B|-------------------------------------------------------------------------|
G|-----------77777777----------777777-77------------77777777----------7777-|
D|--22222222-77777777-22222222-777777-77---22222222-77777777-22222222-7777-|
A|--22222222-55555555-22222222-555555-55---22222222-55555555-22222222-5555-|
E|--00000000----------00000000-------------00000000----------00000000------|

e|-----|
B|-----|
G|-6666|
D|-4444|
A|-4444|
E|-----|
PreChorus 2:
Pre-Chorus:
e|-2---22---2---22----3----33-----7----7777-////////////////-------------]
B|-2---22---2---22----2----22-----7----7777-////////////////-------------]
G|-2---22---2---22----3----33-----7----7777-////////////////-------------]
D|-4---44---4---44----0----00-----9----9999-////slide///////-------------]
A|-4---44---4---44----0----00-----9----9999-////////////////-------------]
E|-2---22---2---22----0----00-----7----7777-////////////////-------------]
Break:
e|-------------------------------------------------------------------------|
B|-------------------------------------------------------------------------|
G|-------------------------------------------------------------------------|
D|-44-44-22--44--22-----44-44-22--44--22-----------------------------------|
A|-44-44-22--44--22-----44-44-22--44--22-----------------------------------|
E|-22-22-00--22--00-----22-22-00--22--00-----------------------------------|

ORDER:
Intro x1
Verse x7
PreChorus1 x1
Chorus x1
Verse x7
PreChorus2 x2
Chorus x1
Break x1
Chorus x2
Break x2
| /  slide up
| \  slide down
| h  hammer-on
| p  pull-off
| ~  vibrato
| +  harmonic
| x  Mute note
===============================================================================
Related for Jack The Ripper Live tab
Jack The Ripper Live chords by My Chemical Romance