Song name
# A B C D E F G H I J K L M N O P Q R S T U V W X Y Z

My Chemical Romance - End Live tab

Tabbed by:Semizero10894

Tuning: Standard

~~~~~~~~~~~~~~~~~~~~~~~~~~~~~~~~~~~~~~~~~~~~~~~~~~~~~~~~~~~~~~~~~~~~~~~~~~~~

Intro:

e|-------------------------------------------------------------------------|
B|-------------------------------------------------------------------------|
G|-------------------------------------------------------------------------|
D|-------------------------------------------x-xxxx--x-xxxx--x-xxxx--x-xxxx|
A|-------------------------------------------x-xxxx--x-xxxx--x-xxxx--x-xxxx|
E|-------------------------------------------x-xxxx--x-xxxx--x-xxxx--x-xxxx|


~~~~~~~~~~~~~~~~~~~~~~~~~~~~~~~~~~~~~~~~~~~~~~~~~~~~~~~~~~~~~~~~~~~~~~~~~~~~

Verse 1: 

e|-------------------------------------------------------------------------|
B|-------------------------------------------------------------------------|
G|--------------------------------------------------------------6-6666-----|
D|xx5-5555--5-5555--5-5555--------2-2222-2-2222--2-2222--2-2222/6-6666-----|
A|xx5-5555--5-5555--5-5555--------2-2222-2-2222--2-2222--2-2222/4-4444-----|
E|xx3-3333--3-3333--3-3333--3-2-0-0-0000-0-0000--0-0000--0-0000------------|

e|-------------------------------------------------------------------------|
B|-------------------------------------------------------------------------|
G|6-6666--6-6666-6-6666\5-5555--5-5555--5-5555--5-5555---------------------|
D|6-6666--6-6666-6-6666\5-5555--5-5555--5-5555--5-5555---------------------|
A|4-4444--4-4444-4-4444\3-3333--3-3333--3-3333--3-3333---------------------|
E|-------------------------------------------------------------------------|

~~~~~~~~~~~~~~~~~~~~~~~~~~~~~~~~~~~~~~~~~~~~~~~~~~~~~~~~~~~~~~~~~~~~~~~~~~~~

Chorse:

e|-------------------------------------------------------------------------|
B|-------------------------------------------------------------------------|
G|-------------------------------------------------------------------------|
D|-------------------------------6--6--6--6-7-6-5--5--7--5-----------------|
A|5---5---5-7-9-7--5-2--2--4--2--4--4--4--4-5-4-3--3--5--3-----------------|
E|3---3---3-5-7-5--3-0--0--2--0--------------------------------------------|

e|-------------------------------------------------------------------------|
B|-------------------------------------------------------------------------|
G|-------------------------------------------------------------------------|
D|-------------------------------------------------------------------------|
A|4/5--5--5--5-4/3--3--3--3------------------------------------------------|
E|2/3--3--3--3-2/3--3--3--3------------------------------------------------|

~~~~~~~~~~~~~~~~~~~~~~~~~~~~~~~~~~~~~~~~~~~~~~~~~~~~~~~~~~~~~~~~~~~~~~~~~~~~

Verse 2: 

e|-------------------------------------------------------------------------|
B|-------------------------------------------------------------------------|
G|--------------------------------------------------------------6-6666-----|
D|xx5-5555--5-5555--5-5555--------2-2222-2-2222--2-2222--2-2222/6-6666-----|
A|xx5-5555--5-5555--5-5555--------2-2222-2-2222--2-2222--2-2222/4-4444-----|
E|xx3-3333--3-3333--3-3333--3-2-0-0-0000-0-0000--0-0000--0-0000------------|

e|-------------------------------------------------------------------------|
B|-------------------------------------------------------------------------|
G|6-6666--6-6666-6-6666\5-5555--5-5555--5-5555--5-5555---------------------|
D|6-6666--6-6666-6-6666\5-5555--5-5555--5-5555--5-5555---------------------|
A|4-4444--4-4444-4-4444\3-3333--3-3333--3-3333--3-3333---------------------|
E|-------------------------------------------------------------------------|

~~~~~~~~~~~~~~~~~~~~~~~~~~~~~~~~~~~~~~~~~~~~~~~~~~~~~~~~~~~~~~~~~~~~~~~~~~~~

Final Chorse:

e|-------------------------------------------------------------------------|
B|-------------------------------------------------------------------------|
G|-------------------------------------------------------------------------|
D|-------------------------------6--6--6--6-7-6-555-777-888-101010-5-------|
A|5---5---5-7-9-7--5-2--2--4--2--4--4--4--4-5-4-333-555-666- 8 8 8-5-------|
E|3---3---3-5-7-5--3-0--0--2--0------------------------------------3-------|
Tap to rate this tab
# A B C D E F G H I J K L M N O P Q R S T U V W X Y Z