Song name
# A B C D E F G H I J K L M N O P Q R S T U V W X Y Z

My Chemical Romance - Disenchanted Shut Up And Pray tab

Help us improve GuitareTab! Take a short survey!
Intro

|-----------------------||----------------------||-----------------------|
|-----------------------||-3--3-3---------------||-----------------------|
|-7--7-7-----0-0-0-2-0--||---2-2-2---0-0-0-2-0--||-7--7-7-----0-0-0-2-0--|
|---7-7-7-5-4-4-4-----4-||-0------5-4-4-4-----4-||---7-7-7-5-4-4-4-----4-|
|-5---------------------||----------------------||-5---------------------|
|-----------------------||----------------------||-----------------------|

|----------------------|
|-3--3-3---------------|
|---2-2-2---0-0-0-2-0--|
|--------5-4-4-4-----4-| 
|-0--------------------|
|----------------------|
 
(verse prt.1)

I was there on the day they sold...

|-----------------------||----------------------||-----------------------|
|-----------------------||-3--3-3---------------||-----------------------|
|-7--7-7-----0-0-0-2-0--||---2-2-2---0-0-0-2-0--||-7--7-7-----0-0-0-2-0--|
|---7-7-7-5-4-4-4-----4-||-0------5-4-4-4-----4-||---7-7-7-5-4-4-4-----4-|
|-5---------------------||----------------------||-5---------------------|
|-----------------------||----------------------||-----------------------|

|----------------------|
|-3--3-3---------------|
|---2-2-2---0-0-0-2-0--|
|--------5-4-4-4-----4-| 
|-0--------------------|
|----------------------|

(verse prt.2)

It was the roar of the crowd...

|---------------------|
|---------------------|
|-7~------------------|
|-7~---9~---5~---7~---|
|-5~---9~---5~---7~---|
|------9~---5~---7~---|

(pre- chorous)

If i'm so wrong...

|--------------------------------------|
|--------------------------------------|
|---------77-77------------------------|
|-9--2--7-77-77--9--2--777/999/111111--|
|-9--2--7-55x44--9--2--777/999/111111--|
|-9--2--7--------9--2--777/999/111111--|

(chorous)

Your just a sad song...

|--------------|
|--------------|
|-7------------| havent work out strumming pattern but their the right
|-7--9--5--7---| chords
|-5--9--5--7---|
|----9--5--7---|

(verse prt.2 x2)

(pre-chorous)

(chorous)

(middle)

 So go...

|---------------------------------------------|
|---------------------------------------------|
|-7~------7~--------77-x-77-x-44-x-22---------|
|-7~--1~--7~--1~----77-x-77-x-44-x-22--55-77--|
|-5~--1~--5~--1~----55-x-44-x-22-x-00--55-77--|
|-----1~------1~-----------------------55-77--|

(intro distortion)

(chorous x2)

(intro no distortion)

 ending chord
|---|
|-7-|
|-7-|
|-7-|
|-5-|
|---|

new album is really good. 

cheers, 
panicatthepaddy
Related for Disenchanted Shut Up And Pray tab