Song name
# A B C D E F G H I J K L M N O P Q R S T U V W X Y Z

My Chemical Romance - This Is How I Disappear tab

Song: This Is How I Disappear
Band: My Chemical Romance
Album: The Black Parade

Key:

x:- String Mute
*:- Palm Mute
/:- Slide
^(#):- Bend To Fret
r:- Release
~:- Let Ring

Gtr I: Ray Toro
Gtr II: Frank Iero
Bass Gtr: Mikey Way

Intro:

Gtr I

e:|------------------------------------------------------------|
B:|------------------------------------------------------------|
G:|-6-6-6-6-7-7-7-7-9-9-9-9-10101010-9-9-9-9-10101010-12121212-|
D:|-x-x-x-x-x-x-x-x-x-x-x-x--x-x-x-x-7-7-7-7--7-7-7-7--7-7-7-7-|
A:|-5-5-5-5-5-5-5-5-5-5-5-5--5-5-5-5---------------------------|
E:|------------------------------------------------------------|

e:|-3-3-3-3-3-3-3-3-3-3-3-3-3-3-3-3---------------------------------|
B:|-x-x-x-x-x-x-x-x-6-6-6-6-5-5-5-5---------------------------------|
G:|-3-3-3-3-3-3-3-3-3-3-3-3-3-3-3-3-7-7-7-7-7-7-7-7-9-9-9-9-9-9-9-9-|
D:|---------------------------------3-3-3-3-3-3-3-3-7-7-7-7-7-7-7-7-|
A:|-----------------------------------------------------------------|
E:|-----------------------------------------------------------------|

Gtr II

e:|----------------------------|
B:|----------------------------|
G:|-7~~------------------------|
D:|-7~~---7~~---5~~---3~~--7~~-|
A:|-5~~---7~~---5~~---3~~--7~~-|
E:|-------5~~---3~~---1~~--5~~-|

Intro Pt II:

Gtr I

e:|------------------------------------------------------------|
B:|------------------------------------------------------------|
G:|-6-6-6-6-7-7-7-7-9-9-9-9-10101010-9-9-9-9-10101010-12121212-|
D:|-x-x-x-x-x-x-x-x-x-x-x-x--x-x-x-x-7-7-7-7--7-7-7-7--7-7-7-7-|
A:|-5-5-5-5-5-5-5-5-5-5-5-5--5-5-5-5---------------------------|
E:|------------------------------------------------------------|

e:|-3-3-3-3-3-3-3-3-3-3-3-3-3-3-3-3-------------------------------|
B:|-x-x-x-x-x-x-x-x-6-6-6-6-5-5-5-5-------------------------------|
G:|-3-3-3-3-3-3-3-3-3-3-3-3-3-3-3-3-7-7-7-7-7-7-7-7-999999999-<7>-|
D:|---------------------------------3-3-3-3-3-3-3-3-777777777-----|
A:|---------------------------------------------------------------|
E:|---------------------------------------------------------------|


Gtr II

e:|---------------------------------------------------|
B:|---------------------------------------------------|
G:|---------------------------------------------------|
D:|---------------------------------------------------|
A:|-5~--7~---8-7-10/12~--10--8-7-5-7--8-7-5/4--8~-10~-|
E:|---------------------------------------------------|

e:|------------------|
B:|------------------|
G:|-1414141414141414-|
D:|--x-x-x-x-x-x-x-x-|
A:|-1212121212121212-|
E:|------------------|

Intro Pt III:

Gtr I

e:|------------------------------------------------------------|
B:|------------------------------------------------------------|
G:|-6-6-6-6-7-7-7-7-9-9-9-9-10101010-9-9-9-9-10101010-12121212-|
D:|-x-x-x-x-x-x-x-x-x-x-x-x--x-x-x-x-7-7-7-7--7-7-7-7--7-7-7-7-|
A:|-5-5-5-5-5-5-5-5-5-5-5-5--5-5-5-5---------------------------|
E:|------------------------------------------------------------|

e:|-3-3-3-3-3-3-3-3-3-3-3-3-3-3-3-3------------------------------------|
B:|-x-x-x-x-x-x-x-x-6-6-6-6-5-5-5-5------------------------------------|
G:|-3-3-3-3-3-3-3-3-3-3-3-3-3-3-3-3-7-7-7-7-7-7-7-7-9-9-9-9-9-9-9-9-7~-|
D:|---------------------------------3-3-3-3-3-3-3-3-7-7-7-7-7-7-7-7-7~-|
A:|-----------------------------------------------------------------5~-|
E:|--------------------------------------------------------------------|

Gtr II

e:|-----------------------------------------------------------------|
B:|-----------------------------------------------------------------|
G:|-7-7-7-7-7-7-7-7-7-7-7-7-7-7-7-7---------------------------------|
D:|-7-7-7-7-7-7-7-7-7-7-7-7-7-7-7-7-7-7-7-7-7-7-7-7-7-7-7-7-7-7-7-7-|
A:|-5-5-5-5-5-5-5-5-5-5-5-5-5-5-5-5-7-7-7-7-7-7-7-7-7-7-7-7-7-7-7-7-|
E:|---------------------------------5-5-5-5-5-5-5-5-5-5-5-5-5-5-5-5-|

e:|--------------------------------------------------------------------|
B:|--------------------------------------------------------------------|
G:|-----------------------------------------------------------------7~-|
D:|-5-5-5-5-5-5-5-5-5-5-5-5-5-5-5-5-3-3-3-3-3-3-3-3-7-7-7-7-7-7-7-7-7~-|
A:|-5-5-5-5-5-5-5-5-5-5-5-5-5-5-5-5-3-3-3-3-3-3-3-3-7-7-7-7-7-7-7-7-5~-|
E:|-3-3-3-3-3-3-3-3-3-3-3-3-3-3-3-3-1-1-1-1-1-1-1-1-5-5-5-5-5-5-5-5----|

Verse I:

Part I:

Bass Gtr

G:|-------------------------------------------------|
D:|-------------------------------------------------|
A:|-5-5-5-5---------3-3-3-3---------1-1-1-1---------|
E:|---------3-3-3-3---------1-1-0-0---------0-0-0-0-|

Then:

Both Gtr's

e:|-----------------------------|
B:|-----------------------------|
G:|-14-141414-141414-14-14-1414-|
D:|--x--x-x-x--x-x-x--x--x--x-x-|
A:|-12-121212-121212-12-12-1212-|
E:|-----------------------------|

Part II:

Gtr I

e:|-------------------------------------------------|
B:|-------------------------------------------------|
G:|-7-----7-----7-----7-----------------------------|
D:|-7-7-7-7-7-7-7-7-7-7-7-7-5-----5-----5-----5-----|
A:|-5-5-5-5-5-5-5-5-5-5-5-5-5-5-5-5-5-5-5-5-5-5-5-5-|
E:|-------------------------3-3-3-3-3-3-3-3-3-3-3-3-|
PM    * *   * *   * *   * *   * *   * *   * *   * *

e:|-------------------------------------------------|
B:|-------------------------------------------------|
G:|-5-----5-----5-----5-----------------------------|
D:|-5-5-5-5-5-5-5-5-5-5-5-5-3-----3-----3-----3-----|
A:|-3-3-3-3-3-3-3-3-3-3-3-3-3-3-3-3-3-3-3-3-3-3-3-3-|
E:|-------------------------1-1-1-1-1-1-1-1-1-1-1-1-|
PM    * *   * *   * *   * *   * *   * *   * *   * *

e:|-------------------------------------------------|
B:|-------------------------------------------------|
G:|-3-----3-----3-----3-----------------------------|
D:|-3-3-3-3-3-3-3-3-3-3-3-3-2-----2-----2-----2-----|
A:|-1-1-1-1-1-1-1-1-1-1-1-1-2-2-2-2-2-2-2-2-2-2-2-2-|
E:|-------------------------0-0-0-0-0-0-0-0-0-0-0-0-|
PM    * *   * *   * *   * *   * *   * *   * *   * *

e:|---------------------------------|
B:|---------------------------------|
G:|-2-2-2-2-2-2-2-2-2-2-2-2-2-2-2-2-|
D:|-2-2-2-2-2-2-2-2-2-2-2-2-2-2-2-2-|
A:|-0-0-0-0-0-0-0-0-0-0-0-0-0-0-0-0-|
E:|---------------------------------|

Gtr II

e:|------------------------------------------------------------------------|
B:|------------------------------------------------------------------------|
G:|-7-7-7-7-7-------------------------5-5-5-5-5----------------------------|
D:|-7-7-7-7-7--------5-5-5-5-5--------5-5-5-5-5--------3-3-3-3-3-2-2-2-2-2-|
A:|-5-5-5-5-5--------5-5-5-5-5--------3-3-3-3-3--------3-3-3-3-3-2-2-2-2-2-|
E:|------------------3-3-3-3-3-------------------------1-1-1-1-1-0-0-0-0-0-|

e:|-----------------------------|
B:|-----------------------------|
G:|-3-3-3-3-3-------------------|
D:|-3-3-3-3-3---------2-2-2-2-2-|
A:|-1-1-1-1-1---------2-2-2-2-2-|
E:|-------------------0-0-0-0-0-

e:|----------------------------|
B:|----------------------------|
G:|-14141414-1212-1010-9/10/9~-|
D:|--x-x-x-x--x-x--x-x-x--x-x--|
A:|-12121212-1010--8-8-7/-8/7~-|
E:|----------------------------|

Pre-Chorus:

Both Gtr's

e:|---------------------------------------|
B:|---------------------------------------|
G:|-7------10------9------6------12121212-|
D:|-x-------x------x------x-------x-x-x-x-|
A:|-5-5555--8-8888-7-7777-4-4444-10101010-|
E:|---------------------------------------|
PM    ****    ****   ****   ****

Chorus:

Gtr I

e:|-----------------------------------------------------------------|
B:|-----------------------------------------------------------------|
G:|-7-7-7-7-7-7-7-7-----------------5-5-5-5-5-5-5-5-----------------|
D:|-7-7-7-7-7-7-7-7-5-5-5-5-5-5-5-5-5-5-5-5-5-5-5-5-3-3-3-3-3-3-3-3-|
A:|-5-5-5-5-5-5-5-5-5-5-5-5-5-5-5-5-3-3-3-3-3-3-3-3-3-3-3-3-3-3-3-3-|
E:|-----------------3-3-3-3-3-3-3-3-----------------1-1-1-1-1-1-1-1-|

e:|-----------------------------------------------------------------|
B:|-----------------------------------------------------------------|
G:|-7-7-7-7-7-7-7-7-----------------5-5-5-5-5-5-5-5-----------------|
D:|-7-7-7-7-7-7-7-7-5-5-5-5-5-5-5-5-5-5-5-5-5-5-5-5-7-7-7-7-7-7-7-7-|
A:|-5-5-5-5-5-5-5-5-5-5-5-5-5-5-5-5-3-3-3-3-3-3-3-3-7-7-7-7-7-7-7-7-|
E:|-----------------3-3-3-3-3-3-3-3-----------------5-5-5-5-5-5-5-5-|

e:|-----------------------------------------------------------------|
B:|-----------------------------------------------------------------|
G:|-7-7-7-7-7-7-7-7-----------------5-5-5-5-5-5-5-5-----------------|
D:|-7-7-7-7-7-7-7-7-5-5-5-5-5-5-5-5-5-5-5-5-5-5-5-5-3-3-3-3-3-3-3-3-|
A:|-5-5-5-5-5-5-5-5-5-5-5-5-5-5-5-5-3-3-3-3-3-3-3-3-3-3-3-3-3-3-3-3-|
E:|-----------------3-3-3-3-3-3-3-3-----------------1-1-1-1-1-1-1-1-|

e:|-----------------------------------------------------------------|
B:|-----------------------------------------------------------------|
G:|-7-7-7-7-7-7-7-7-------------------------------------------------|
D:|-7-7-7-7-7-7-7-7-5-5-5-5-5-5-5-5-7-7-7-7-7-7-7-7-7-7-7-7-7-7-7-7-|
A:|-5-5-5-5-5-5-5-5-5-5-5-5-5-5-5-5-7-7-7-7-7-7-7-7-7-7-7-7-7-7-7-7-|
E:|-----------------3-3-3-3-3-3-3-3-5-5-5-5-5-5-5-5-5-5-5-5-5-5-5-5-|


Gtr II

e:|--------------------------------------------------------------|
B:|--------------------------------------------------------------|
G:|-7-7-7-7-7-7/9-9/1010101010/9-5-5-5-5-5-5/7-7-----------------|
D:|-x-x-x-x-x-x-x-x--x-x-x-x-x-x-x-x-x-x-x-x-x-x-8-8-8-8-7-7-7-7-|
A:|-5-5-5-5-5-5/7-7/-8-8-8-8-8/7-3-3-3-3-3-3/5-5-x-x-x-x-x-x-x-x-|
E:|----------------------------------------------6-6-6-6-5-5-5-5-|

e:|------------------------------------------------------------------|
B:|------------------------------------------------------------------|
G:|-10101010/14141414-7-7-7-7/9/10-9-9-9-9-5-5-5-5-12121212/10101010-|
D:|--x-x-x-x--x-x-x-x-x-x-x-x-x--x-x-x-x-x-x-x-x-x--x-x-x-x--x-x-x-x-|
A:|--8-8-8-8/12121212-5-5-5-5/7/-8-7-7-7-7-3-3-3-3-10101010/-8-8-8-8-|
E:|------------------------------------------------------------------|

e:|--------------------------------------------------------------|
B:|--------------------------------------------------------------|
G:|-7-7-7-7-7-7/9-9/1010101010/9-5-5-5-5-5-5/7-7-----------------|
D:|-x-x-x-x-x-x-x-x--x-x-x-x-x-x-x-x-x-x-x-x-x-x-8-8-8-8-7-7-7-7-|
A:|-5-5-5-5-5-5/7-7/-8-8-8-8-8/7-3-3-3-3-3-3/5-5-x-x-x-x-x-x-x-x-|
E:|----------------------------------------------6-6-6-6-5-5-5-5-|

e:|------------------------------------------------------------------|
B:|------------------------------------------------------------------|
G:|-10101010/14141414-7-7-7-7/9/10-9-9-9-9-5-5-5-5-12121212/10101010-|
D:|--x-x-x-x--x-x-x-x-x-x-x-x-x--x-x-x-x-x-x-x-x-x--x-x-x-x--x-x-x-x-|
A:|--8-8-8-8/12121212-5-5-5-5/7/-8-7-7-7-7-3-3-3-3-10101010/-8-8-8-8-|
E:|------------------------------------------------------------------|

Verse II:

Gtr I

e:|-----------------------------------------------------|
B:|-----------------------------------------------------|
G:|-7~~--7~--9~--10~--12~--10~--9~--10~--7~--9~--6~--7~-|
D:|-7~~-------------------------------------------------|
A:|-5~~-------------------------------------------------|
E:|-----------------------------------------------------|

e:|-----------------------------------------------------------------|
B:|-----------------------------------------------------------------|
G:|-------7---7-------------------------5-----5---5-----------------|
D:|-7-7-7-7-7-7-7-7-------5---5-----5-5-5-5-5-5-5-5-----3-----3---3-|
A:|-5-5-5-5-5-5-5-5-5-5-5-5-5-5-5-5-3-3-3-3-3-3-3-3-3-3-3-3-3-3-3-3-|
E:|-----------------3-3-3-3-3-3-3-3-----------------1-1-1-1-1-1-1-1-|
PM  * * *   *   * * * * *   *   * * * *   * *   *   * *   * *   *

e:|---------------------------------|
B:|---------------------------------|
G:|-----3-----3---3-----------------|
D:|-3-3-3-3-3-3-3-3---2-----2---2---|
A:|-1-1-1-1-1-1-1-1-2-2-2-2-2-2-2-2-|
E:|-----------------0-0-0-0-0-0-0-0-|
PM  * *   * *   *   *   * *   *   *

e:|---------------------------------|
B:|---------------------------------|
G:|---------------------------------|
D:|-7-7-7-7-7-7-7-7-7-7-7-7-7-7-7-7-|
A:|-7-7-7-7-7-7-7-7-7-7-7-7-7-7-7-7-|
E:|-5-5-5-5-5-5-5-5-5-5-5-5-5-5-5-5-|

Gtr II (I only have the first part of the verse for this)

e:|-------------------------------------------------------|
B:|-------------------------------------------------------|
G:|-7~~---------------------------------------------------|
D:|-x---------------------5-5-5-5-5-5-5-5-----------------|
A:|-5~~---5-5-5-5-5-5-5-5-3-3-3-3-3-3-3-3-3-3-3-3-3-3-3-3-|
E:|-------3-3-3-3-3-3-3-3-----------------1-1-1-1-1-1-1-1-|
PM        * * * * * * * * * * * * * * * * * * * * * * * *     

e:|---------------------------------|
B:|---------------------------------|
G:|---------------------------------|
D:|-3-3-3-3-3-3-3-3-----------------|
A:|-1-1-1-1-1-1-1-1-2-2-2-2-2-2-2-2-|
E:|-----------------0-0-0-0-0-0-0-0-|
PM  * * * * * * * * * * * * * * * *

e:|----------------------------|
B:|----------------------------|
G:|-14141414-1212-1010-9/10/9~-|
D:|--x-x-x-x--x-x--x-x-x--x-x--|
A:|-12121212-1010--8-8-7/-8/7~-|
E:|----------------------------|


Repeat Pre-Chorus

Repeat Chorus

Solo:

Gtr I

e:|-10----10----12----12----13----13----15----15----|
B:|----13----13----13----13----13----13----13----13-|
G:|-------------------------------------------------|
D:|-------------------------------------------------|
A:|-------------------------------------------------|
E:|-------------------------------------------------|

e:|-15----15----13----13----12----12----13----13----|
B:|----13----13----13----13----13----13----13----13-|
G:|-------------------------------------------------|
D:|-------------------------------------------------|
A:|-------------------------------------------------|
E:|-------------------------------------------------|

e:|-12----12----12----12----13----13----15----15----|
B:|----13----13----13----13----13----13----13----13-|
G:|-------------------------------------------------|
D:|-------------------------------------------------|
A:|-------------------------------------------------|
E:|-------------------------------------------------|

e:|-13----13----15----15----17----17----20----20----|
B:|----13----13----13----13----15----15----15----15-|
G:|-------------------------------------------------|
D:|-------------------------------------------------|
A:|-------------------------------------------------|
E:|-------------------------------------------------|

e:|-20----20----18----18----17----17----15----15----|
B:|----15----15----15----15----15----15----15----15-|
G:|-------------------------------------------------|
D:|-------------------------------------------------|
A:|-------------------------------------------------|
E:|-------------------------------------------------|

e:|-15----15----13----13----12----12----13----13----|
B:|----15----15----13----13----13----13----13----13-|
G:|-------------------------------------------------|
D:|-------------------------------------------------|
A:|-------------------------------------------------|
E:|-------------------------------------------------|

e:|-10------10------10------10------10------10------10------10------|
B:|-13^(15)-13^(15)-13^(15)-13^(15)-13^(15)-13^(15)-13^(15)-13^(15)-|
G:|-----------------------------------------------------------------|
D:|-----------------------------------------------------------------|
A:|-----------------------------------------------------------------|
E:|-----------------------------------------------------------------|

Bridge Pt I:

Both Gtr's

e:|---------------------------------------|
B:|---------------------------------------|
G:|-7------10------9------6------12121212-|
D:|-x-------x------x------x-------x-x-x-x-|
A:|-5-5555--8-8888-7-7777-4-4444-10101010-|
E:|---------------------------------------|
PM    ****    ****   ****   ****

e:|-----------------------------------|
B:|-----------------------------------|
G:|-7------10------9------6------6666-|
D:|-x-------x------x------x------xxxx-|
A:|-5-5555--8-8888-7-7777-4-4444-4444-|
E:|-----------------------------------|
PM    ****    ****   ****   ****

Gtr I

e:|----------------------------------|
B:|----------------------------------|
G:|----------------------------------|
D:|--------------------------------7-|
A:|-5~-8~-7~-4~-----5~-8~-7~-4~----7-|
E:|-------------5~~-------------55-5-|
PM                              **

e:|--------------------------10^-10^-9^-9^-|
B:|----------------------------------------|
G:|----------------------------------------|
D:|----------------------------------------|
A:|-5~-8~-7~-4~-----5~-8~-7----------------|
E:|-------------5~~------------------------|

Gtr II

e:|----------------------------------|
B:|----------------------------------|
G:|----------------------------------|
D:|--------------------------------7-|
A:|-5~-8~-7~-4~-----5~-8~-7~-4~----7-|
E:|-------------5~~-------------55-5-|
PM                              **

e:|--------------------------|
B:|--------------------------|
G:|--------------------------|
D:|--------------------------|
A:|-5~-8~-7~-4~-----5~-8~-7/-|
E:|-------------5~~----------|

Bridge Pt II

Gtr I

e:|-----------------------------------------------------------------|
B:|-----------------------------------------------------------------|
G:|-7-7-7-7-7-7-7-7-7-7-7-7-7-7-7-7---------------------------------|
D:|-7-7-7-7-7-7-7-7-7-7-7-7-7-7-7-7-5-5-5-5-5-5-5-5-5-5-5-5-5-5-5-5-|
A:|-5-5-5-5-5-5-5-5-5-5-5-5-5-5-5-5-5-5-5-5-5-5-5-5-5-5-5-5-5-5-5-5-|
E:|---------------------------------3-3-3-3-3-3-3-3-3-3-3-3-3-3-3-3-|

e:|---------------------------------------------------|
B:|---------------------------------------------------|
G:|-5-5-5-5-5-5-5-5-5-5-5-5-5-5-5-5-------------------|
D:|-5-5-5-5-5-5-5-5-5-5-5-5-5-5-5-5-------3~-------2~-|
A:|-3-3-3-3-3-3-3-3-3-3-3-3-3-3-3-3-------3~-------2~-|
E:|---------------------------------1-1-1-1~-0-0-0-0~-|
PM                                  * * *    * * *

e:|-----------------------------------------------------------------|
B:|-----------------------------------------------------------------|
G:|-7-7-7-7-7-7-7-7-7-7-7-7-7-7-7-7---------------------------------|
D:|-7-7-7-7-7-7-7-7-7-7-7-7-7-7-7-7-5-5-5-5-5-5-5-5-5-5-5-5-5-5-5-5-|
A:|-5-5-5-5-5-5-5-5-5-5-5-5-5-5-5-5-5-5-5-5-5-5-5-5-5-5-5-5-5-5-5-5-|
E:|---------------------------------3-3-3-3-3-3-3-3-3-3-3-3-3-3-3-3-|

e:|-----------------------------------------------------------------|
B:|-----------------------------------------------------------------|
G:|-5-5-5-5-5-5-5-5-5-5-5-5-5-5-5-5---------------------------------|
D:|-5-5-5-5-5-5-5-5-5-5-5-5-5-5-5-5-7-7-7-7-7-7-7-7-7-7-7-7-7-7-7-7-|
A:|-3-3-3-3-3-3-3-3-3-3-3-3-3-3-3-3-7-7-7-7-7-7-7-7-7-7-7-7-7-7-7-7-|
E:|---------------------------------5-5-5-5-5-5-5-5-5-5-5-5-5-5-5-5-|


Gtr II

e:|---------------------------------------|
B:|---------------------------------------|
G:|-10------9------7------6------10/12/10-|
D:|--x------x------x------x-------x--x--x-|
A:|--8-8888-7-7777-5-5555-4-4444--8/10/-8-|
E:|---------------------------------------|
PM     ****   ****   ****   ****

e:|----------------------------------------|
B:|----------------------------------------|
G:|-12---------10------9------7------6/7/6-|
D:|--x----------x------x------x------x-x-x-|
A:|-10-10101010-8-8888-7-7777-5-5555-4/5/4-|
E:|----------------------------------------|
PM      * * * *   ****   ****   ****

e:|---------------------------------------|
B:|---------------------------------------|
G:|-10------9------7------6------10/12/10-|
D:|--x------x------x------x-------x--x--x-|
A:|--8-8888-7-7777-5-5555-4-4444--8/10/-8-|
E:|---------------------------------------|
PM     ****   ****   ****   ****

e:|------------------------|
B:|------------------------|
G:|-----10~------9~-9/10/9-|
D:|------x-------x--x--x-x-|
A:|-888--8~--777-7~-7/-8/7-|
E:|------------------------|
PM  ***      ***

e:|---------------------------------------|
B:|---------------------------------------|
G:|-10------9------7------6------10/12/10-|
D:|--x------x------x------x-------x--x--x-|
A:|--8-8888-7-7777-5-5555-4-4444--8/10/-8-|
E:|---------------------------------------|
PM     ****   ****   ****   ****

e:|----------------------------------------|
B:|----------------------------------------|
G:|-12---------10------9------7------6/7/6-|
D:|--x----------x------x------x------x-x-x-|
A:|-10-10101010-8-8888-7-7777-5-5555-4/5/4-|
E:|----------------------------------------|
PM      * * * *   ****   ****   ****

e:|---------------------------------------|
B:|---------------------------------------|
G:|-10------9------7------6------10/12/10-|
D:|--x------x------x------x-------x--x--x-|
A:|--8-8888-7-7777-5-5555-4-4444--8/10/-8-|
E:|---------------------------------------|
PM     ****   ****   ****   ****

e:|----------------------------------|
B:|----------------------------------|
G:|-14141414141414141414141414141414-|
D:|--x-x-x-x-x-x-x-x-x-x-x-x-x-x-x-x-|
A:|-12121212121212121212121212121212-|
E:|----------------------------------|

Repeat Chorus x2

End with:

Gtr I

e:|-----------------------------------------------------------------------|
B:|-----------------------------------------------------------------------|
G:|-----------------------------------------------------------------7~~~~-|
D:|-7-7-7-7-7-7-7-7-7-7-7-7-7-7-7-7-7-7-7-7-7-7-7-7-7-7-7-7-7-7-7-7-7~~~~-|
A:|-7-7-7-7-7-7-7-7-7-7-7-7-7-7-7-7-7-7-7-7-7-7-7-7-7-7-7-7-7-7-7-7-5~~~~-|
E:|-5-5-5-5-5-5-5-5-5-5-5-5-5-5-5-5-5-5-5-5-5-5-5-5-5-5-5-5-5-5-5-5-------|

Gtr II

e:|---------------------------------------------------------------------|
B:|---------------------------------------------------------------------|
G:|-1212121212121212-1414141414141414-1515151515151515-1818181818181818-|
D:|--x-x-x-x-x-x-x-x--x-x-x-x-x-x-x-x--x-x-x-x-x-x-x-x--x-x-x-x-x-x-x-x-|
A:|-1010101010101010-1212121212121212-1313131313131313-1616161616161616-|
E:|---------------------------------------------------------------------|

e:|-------|
B:|-------|
G:|-7~~~~-|
D:|-x-----|
A:|-5~~~~-|
E:|-------|

Tap to rate this tab
# A B C D E F G H I J K L M N O P Q R S T U V W X Y Z