My Darkest Days - Porn Star Dancing tab

"Porn Star Dancing" ft. Ludacris, Chad Kroeger, Zakk Wylde
My Darkest Day
http://spaces.msn.com/mydarkestdays/

These are just the background chords. My ear's not good enough for the solo or verse 
Any mistakes
email me at andberry89@gmail.com.  With the verse and solos and stuff you can do what 
want with the
chords, you don't have to just hit and hold.  I do some palm muting, some triplets, 
you think
is good. There is a lead part over all the verses, I just can't figure them out nor do I 
the
equipment to see if it sounds right.

Tuning: Drop D

Intro
|----------------|
|----------------|
|----------------|
|---[7]~~~-------|
|----------------|
|----------------|

|----------------|----------------|----------------|----------------|
|----------------|----------------|----------------|----------------|
|----------------|----------------|----------------|----------------|
|2---------------|(2)-------------|(2)-------------|-7-------0--1---|
|2---------------|(2)-------------|(2)-------------|-7-------0--1---|
|2---------------|(2)-------------|(2)-------------|-7-------0--1---|


Verse
|----------------|
|----------------|
|----------------| x8
|-2--------------|
|-2--------------|
|-2--------------|

Pre-Chorus

|----------------|----------------|
|----------------|----------------|
|--5-------------|--7-------------|
|--5-------------|--7----5--0-----|
|--3-------------|--5----5--0-----|
|----------------|-------5--0-----|

Chorus (you can also play the E chord and palm mute instead of the x's)

|----------------|----------------|----------------|----------------|
|----------------|----------------|----------------|----------------|
|----------------|----------------|----------------|----------------|
|2-----------x-x-|2-----------x-x-|2-----------x-x-|-7-------0--1---| x2
|2-----------x-x-|2-----------x-x-|2-----------x-x-|-7-------0--1---|
|2-----------x-x-|2-----------x-x-|2-----------x-x-|-7-------0--1---|

Post-Chorus

|----------------|	|----------------|
|----------------|	|----------------|
|---|Rest for 3|-|	|----------------|
|----------------|	|-7-------0--1---|
|----------------|	|-7-------0--1---|
|----------------|	|-7-------0--1---|

Verse x4

Pre-Chorus

Chorus

Post-Chorus

Ludacris (Verse x8)

Zakk Wylde solo (Verse x8)

Chorus

Outro
Tap to rate this tab
 
# A B C D E F G H I J K L M N O P Q R S T U V W X Y Z