Song name
# A B C D E F G H I J K L M N O P Q R S T U V W X Y Z

My Darkest Days - Every Lie tab

-----------------------------------------------------------------------------
			     Every Lie - My Darkest Days
-----------------------------------------------------------------------------

Did this by ear and by watching clips of them playing it live, so hopefully it's correct.

Guitar 1: Sal Costa
Guitar 2: Matt Walst

Both guitars in Drop D

~ : sustain
x : dead note

Intro:

Guitar 1 (Acoustic):
E|----------------------------|x2
B|-------------------1--------|
G|-----2----------------------|
D|---0---0---5~----3---3---7~-|
A|---------------1------------|
D|-0-------3-------------5----|

Verse:

Guitar 1 (Clean):
E|----------------------------|x4
B|-------------------1--------|
G|-----2----------------------|
D|---0---0---5~----3---3---7~-|
A|---------------1------------|
D|-0-------3-------------5----|

Guitar 2 (Clean, strummed every other time Guitar 1 starts over):
E|-----|
B|-----|
G|-10~-|
D|-12~-|
A|-12~-|
D|-----|

Now I can't stay... surrounded by...
E|-1~-------------------------------|
B|-1~------------(Distorted)--------|
G|-3~-------------------------------|
D|-3~---------------5--5------------|
A|-1~---------------5--5------------|
D|------------------5--5------------|

Chorus:

Both Guitars (Distorted):
E|---------------|x3
B|---------------|
G|---------------|
D|-0---3---8---5-|
A|-0---3---8---5-|
D|-0---3---8---5-|

Surrounded by...
E|-----------------------------|
B|-----------------------------|
G|-----------------------------|
D|-8-8-8-8-8-8-8-8-10-10-10-10-|
A|-8-8-8-8-8-8-8-8-10-10-10-10-|
D|-8-8-8-8-8-8-8-8-10-10-10-10-|

Post-chorus:

Guitar 1 (Clean):
E|----------------------------|x2
B|-------------------1--------|
G|-----2----------------------|
D|---0---0---5~----3---3---7~-|
A|---------------1------------|
D|-0-------3-------------5----|

Play verse (possibly some faint dirty guitar here, but they don't play it live)

Play chorus x2

Bridge:

Both Guitars:
E|---------------------------------------------------------|
B|---------------------------------------------------------|
G|---------------------------------------------------------|
D|-8-8-8-8-8-8-8-8-10-10-10-10-10-10-10-10-0-0-0-0-0-0-0-0-|
A|-8-8-8-8-8-8-8-8-10-10-10-10-10-10-10-10-0-0-0-0-0-0-0-0-|
D|-8-8-8-8-8-8-8-8-10-10-10-10-10-10-10-10-0-0-0-0-0-0-0-0-|

E|----------------------------------------------------------|
B|----------------------------------------------------------|
G|----------------------------------------------------------|
D|-10-10-10-10-10-10-10-10-8-8-8-8-8-8-8-8-10~--------------|
A|-10-10-10-10-10-10-10-10-8-8-8-8-8-8-8-8-10~--------------|
D|-10-10-10-10-10-10-10-10-8-8-8-8-8-8-8-8-10~-(slide down)-|

E|--------------------------------|x2
B|--------------------------------|
G|--------------------------------|
D|-0--0--0-xx0~--0--0--0--8-8-8-8-|
A|-0--0--0-xx0~--0--0--0--8-8-8-8-|
D|-0--0--0-xx0~--0--0--0--8-8-8-8-|

Break: (play G power chords here the second time)
       |________________________________________|
                          _|_ 
Guitar 1 (Acoustic):     |   |
E|----------------------------|x2
B|-------------------1--------|
G|-----2----------------------|
D|---0---0---5~----3---3---7~-|
A|---------------1------------|
D|-0-------3-------------5----|

Play chorus

That's it. If you have any changes throw 'em by me and I'll take a look.
Tap to rate this tab
 
# A B C D E F G H I J K L M N O P Q R S T U V W X Y Z