My Darkest Days - Set It On Fire tab

This is my first attempt at tabbing a song.  So here it goes.

Tabbed by eschayes

Tuning (C#,Ab,Db,Gb,Bb,Eb)drop C# tuning

Intro/Chorus

---------------------------------------------------------|
---------------------------------------------------------|
---------------------------------------------------------|
--0-0-0--3-3--0-0------3-2--0-0-0--3-3--0-0------3-2-----|
--0-0-0--3-3--0-0--3-0------0-0-0--3-3--0-0--3-0-----0---|
--0-0-0--3-3--0-0-----------0-0-0--3-3--0-0--------------|

Verse

--------------------|
--------------------|
--------------------|
--0-0-0-0-0-0-------|
--0-0-0-0-0-0-------| Slap the top three strings, Mute after each slap
--0-0-0-0-0-0-------| Listen to get the right rhythm

There is a little change to the chorus, but not sure how it changes.  Please comment if 
you like.  Remeber take it easy as this is my first attempt at a guitar tab, and my 
skills aren't as good as some others.
Tap to rate this tab
 
# A B C D E F G H I J K L M N O P Q R S T U V W X Y Z