My Darkest Days - Every Lie tab

-------------------------------------------------------------------------------
			                           Every Lie - My Darkest Days
-------------------------------------------------------------------------------
Tabbed by: shredforever

This song might be played using a tuning of drop D, but i decided to tab it in drop Db. 
This is because many of My Darkest Days others songs are also tuned in Drop Db, and i
wanted to be more consistent and make it easier to be able to play many of their songs 
without retuning. 

Guitar 1: (Db Ab Db Gb Bb eb)
Guitar 2: (Db Ab Db Gb Bb eb)

Intro: x2  
Guitar 1: acoustic
eb|---------------------------------|
Bb|---------------------------------|
Gb|------3--------------------------|
Db|----1---------6-------11-----8---|
Ab|------------6-------9------6-----|
Db|--1------4--------9------6-------|

Verse: x4
Guitar 1: clean (with echo effect)
eb|---------------------------------|
Bb|---------------------------------|
Gb|------3--------------------------|
Db|----1---------6-------11-----8---|
Ab|------------6-------9------6-----|
Db|--1------4--------9------6-------|

Guitar 2: clean 
eb|--2------------------------------|
Bb|--4------------------------------|
Gb|--4------------------------------|
Db|---------------------------------|
Ab|---------------------------------|
Db|---------------------------------|

prechorus: x1
Guitar 1: distorted
eb|-------------------------|
Bb|-------------------------|
Gb|-------------------------|
Db|--------------6--6-------|
Ab|--------------6--6-------|
Db|--------------6--6-------|

Guitar 2: clean
eb|--2----------------------|
Bb|--2----------------------|
Gb|--4----------------------|
Db|--4----------------------|
Ab|--2----------------------|
Db|-------------------------|

chorus 1: x1
both guitars: distorted

part 1: x3
eb|--------------------------------|
Bb|--------------------------------|
Gb|--------------------------------|
Db|--1--3-4--4-4-4-9-9-9-6---6-6-6-|
Ab|--1--3-4--4-4-4-9-9-9-6---6-6-6-|
Db|--1--3-4--4-4-4-9-9-9-6---6-6-6-|

part 2: x1
eb|----------------------------------|
Bb|----------------------------------|
Gb|----------------------------------|
Db|--9-9-9-9-9-9-9-9-11--11--11--11--|
Ab|--9-9-9-9-9-9-9-9-11--11--11--11--|
Db|--9-9-9-9-9-9-9-9-11--11--11--11--|

Post Chorus: x2
Guitar 1: clean (with echo effect)
eb|---------------------------------|
Bb|---------------------------------|
Gb|------3--------------------------|
Db|----1---------6-------11-----8---|
Ab|------------6-------9------6-----|
Db|--1------4--------9------6-------|

Verse 2: x4
Guitar 1: clean (with echo effect)
eb|---------------------------------|
Bb|---------------------------------|
Gb|------3--------------------------|
Db|----1---------6-------11-----8---|
Ab|------------6-------9------6-----|
Db|--1------4--------9------6-------|

Guitar 2: clean 
eb|--2------------------------------|
Bb|--4------------------------------|
Gb|--4------------------------------|
Db|---------------------------------|
Ab|---------------------------------|
Db|---------------------------------|

prechorus: x1
Guitar 1: distorted
eb|-------------------------|
Bb|-------------------------|
Gb|-------------------------|
Db|--------------6--6-------|
Ab|--------------6--6-------|
Db|--------------6--6-------|

Guitar 2: clean
eb|--2----------------------|
Bb|--2----------------------|
Gb|--4----------------------|
Db|--4----------------------|
Ab|--2----------------------|
Db|-------------------------|

chorus 2: x2
both guitars: distorted

part 1: x3
eb|--------------------------------|
Bb|--------------------------------|
Gb|--------------------------------|
Db|--1--3-4--4-4-4-9-9-9-6---6-6-6-|
Ab|--1--3-4--4-4-4-9-9-9-6---6-6-6-|
Db|--1--3-4--4-4-4-9-9-9-6---6-6-6-|

part 2: x1
eb|------------------------------------------|
Bb|------------------------------------------|
Gb|------------------------------------------|
Db|--9-9-9-9-9-9-9-9-11-11-11-11-11-11-11-11-|
Ab|--9-9-9-9-9-9-9-9-11-11-11-11-11-11-11-11-|
Db|--9-9-9-9-9-9-9-9-11-11-11-11-11-11-11-11-|

bridge: x1
both guitars: distorted

eb|------------------------------------------|
Bb|------------------------------------------|
Gb|------------------------------------------|
Db|--9-9-9-9-9-9-9-9-11-11-11-11-11-11-11-11-|
Ab|--9-9-9-9-9-9-9-9-11-11-11-11-11-11-11-11-|
Db|--9-9-9-9-9-9-9-9-11-11-11-11-11-11-11-11-|

eb|------------------------------------------|
Bb|------------------------------------------|
Gb|------------------------------------------|
Db|--1-1-1-1-1-1-1-1-11-11-11-11-11-11-11-11-|
Ab|--1-1-1-1-1-1-1-1-11-11-11-11-11-11-11-11-|
Db|--1-1-1-1-1-1-1-1-11-11-11-11-11-11-11-11-|

eb|--------------------------|
Bb|--------------------------|
Gb|--------------------------|
Db|--9-9-9-9-9-9-9-9-11------|  hold the last note 
Ab|--9-9-9-9-9-9-9-9-11------|   and slowly slide down
Db|--9-9-9-9-9-9-9-9-11------|

eb|----------------------------------------|
Bb|----------------------------------------|
Gb|----------------------------------------|
Db|--1--1--1-x-x-1----1--1--1-x-x-4-4-4-4--|
Ab|--1--1--1-x-x-1----1--1--1-x-x-2-2-2-2--|
Db|--1--1--1-x-x-1----1--1--1-x-x----------|

eb|---------------------------------------|
Bb|---------------------------------------|
Gb|---------------------------------------|
Db|--1--1--1-x-x-1----1--1--1----4-4-4-4--|
Ab|--1--1--1-x-x-1----1--1--1----2-2-2-2--|
Db|--1--1--1-x-x-1----1--1--1-------------|

break: x1
Guitar 1: acoustic 
eb|----------------------------------------------------------------|
Bb|----------------------------------------------------------------|
Gb|------3------------------------------3--------------------------|
Db|----1---------6-------11-----8-----1---------6-------11---------|
Ab|------------6-------9------6---------------6-------9------------|
Db|--1------4--------9------6-------1------4--------9------6-------|

Guitar 2: distorted 
eb|----------------------------------------------------------------|
Bb|----------------------------------------------------------------|
Gb|----------------------------------------------------------------|
Db|----------------------------------------------------------6--6--|
Ab|----------------------------------------------------------6--6--|
Db|----------------------------------------------------------6--6--|

final chorus: x1
both guitars: distorted

part 1: x1
eb|--------------------------------|
Bb|--------------------------------|
Gb|--------------------------------|
Db|--1--3-4--4-4-4-9-9-9-6---6-6-6-|
Ab|--1--3-4--4-4-4-9-9-9-6---6-6-6-|
Db|--1--3-4--4-4-4-9-9-9-6---6-6-6-|

part 2: x1
eb|------------------------------------------|
Bb|------------------------------------------|
Gb|------------------------------------------|
Db|--9-9-9-9-9-9-9-9-11-11-11-11-11-11-11-11-|
Ab|--9-9-9-9-9-9-9-9-11-11-11-11-11-11-11-11-|
Db|--9-9-9-9-9-9-9-9-11-11-11-11-11-11-11-11-|

part 1: x3
eb|--------------------------------|
Bb|--------------------------------|
Gb|--------------------------------|
Db|--1--3-4--4-4-4-9-9-9-6---6-6-6-|
Ab|--1--3-4--4-4-4-9-9-9-6---6-6-6-|
Db|--1--3-4--4-4-4-9-9-9-6---6-6-6-|

part 2: x1
eb|------------------------------------------|
Bb|------------------------------------------|
Gb|------------------------------------------|
Db|--9-9-9-9-9-9-9-9-11-11-11-11-11-11-11-11-|
Ab|--9-9-9-9-9-9-9-9-11-11-11-11-11-11-11-11-|
Db|--9-9-9-9-9-9-9-9-11-11-11-11-11-11-11-11-|

part 3: x1
eb|---------------------------------|
Bb|---------------------------------|
Gb|---------------------------------|
Db|--9-9-9-9-9-9-9-9-11--11--11--11-|
Ab|--9-9-9-9-9-9-9-9-11--11--11--11-|
Db|--9-9-9-9-9-9-9-9-11--11--11--11-|

legend:
x - deadened note
Tap to rate this tab
 
# A B C D E F G H I J K L M N O P Q R S T U V W X Y Z