Song name
# A B C D E F G H I J K L M N O P Q R S T U V W X Y Z

My Darkest Days - Still Worth Fighting tab

Another tab of My Darkest Days. Really beast band and song. I hope you enjoy this tab!

Intro/Verse: x3
eb|--------------------------------------------------------------------------|
Bb|------2-----2-----------2-----2-----------2-----2-----------2-----2-------|
Gb|--------------------------------------------------------------------------|
Db|----4-----4-----4-----4-----4-----4-----4-----4-----4-----4-----4-----4---|
Ab|--------------------------------------0-----0-----0-----2-----2-----2-----|
Db|--4-----4-----4-----0-----0-----0-----------------------------------------|

Prechorus:
eb|---------------------------------------------------------|
Bb|------2-----2-----------2-----2---2-------3-----3-----3--|
Gb|--2-----2-----2-------2-----2-----------4-----4-----4----|
Db|----4-----4-----4---4-----4-----4-----4-----4-----4------|
Ab|---------------------------------------------------------|
Db|---------------------------------------------------------|

Chorus: 
eb|------------------------------------------------------------------|  
Bb|------------------------------------------------------------------|
Gb|------------------------------------------------------------------|
Db|--4-4-4-4-4-4-4-4-0-0-0-0-0-0-0-0-2-2-2-2-2-2-2-2-0-0-0-0-2-2-2-2-|
Ab|--4-4-4-4-4-4-4-4-0-0-0-0-0-0-0-0-2-2-2-2-2-2-2-2-0-0-0-0-2-2-2-2-|
Db|--4-4-4-4-4-4-4-4-0-0-0-0-0-0-0-0-2-2-2-2-2-2-2-2-0-0-0-0-2-2-2-2-|

eb|-------------------------------------------------------------------|
Bb|-------------------------------------------------------------------|
Gb|-------------------------------------------------------------------|
Db|--4-4-4-4-4-4-4-4-0-0-0-0-0-0-0-0-2-2-2-2-2-2-2-2-6-6-6-6-6-6-6-6--|
Ab|--4-4-4-4-4-4-4-4-0-0-0-0-0-0-0-0-2-2-2-2-2-2-2-2-4-4-4-4-4-4-4-4--|
Db|--4-4-4-4-4-4-4-4-0-0-0-0-0-0-0-0-2-2-2-2-2-2-2-2------------------|

eb|---------------|
Bb|---------------|
Gb|---------------|
Db|--0---2---4----|
Ab|--0---2---4----|
Db|--0---2---4----|

Verse 2: x2
eb|--------------------------------------------------------------------------|
Bb|------2-----2-----------2-----2-----------2-----2-----------2-----2-------|
Gb|--------------------------------------------------------------------------|
Db|----4-----4-----4-----4-----4-----4-----4-----4-----4-----4-----4-----4---|
Ab|--------------------------------------0-----0-----0-----2-----2-----2-----|
Db|--4-----4-----4-----0-----0-----0-----------------------------------------|

Prechorus:
eb|---------------------------------------------------------|
Bb|------2-----2-----------2-----2---2-------3-----3-----3--|
Gb|--2-----2-----2-------2-----2-----------4-----4-----4----|
Db|----4-----4-----4---4-----4-----4-----4-----4-----4------|
Ab|---------------------------------------------------------|
Db|---------------------------------------------------------|

Chorus 2:
eb|------------------------------------------------------------------|  
Bb|------------------------------------------------------------------|
Gb|------------------------------------------------------------------|   x2
Db|--4-4-4-4-4-4-4-4-0-0-0-0-0-0-0-0-2-2-2-2-2-2-2-2-0-0-0-0-2-2-2-2-|
Ab|--4-4-4-4-4-4-4-4-0-0-0-0-0-0-0-0-2-2-2-2-2-2-2-2-0-0-0-0-2-2-2-2-|
Db|--4-4-4-4-4-4-4-4-0-0-0-0-0-0-0-0-2-2-2-2-2-2-2-2-0-0-0-0-2-2-2-2-|

eb|-------------------------------------------------------------------------|
Bb|-------------------------------------------------------------------------|
Gb|-------------------------------------------------------------------------|
Db|--4-4-4-4-4-4-4-4-7-7-7-7-7-7-7-7-9-9-9-9-9-9-9-9-12-12-12-12-11-9-11-7--|
Ab|--4-4-4-4-4-4-4-4-7-7-7-7-7-7-7-7-9-9-9-9-9-9-9-9-12-12-12-12-11-9-11-7--|
Db|--4-4-4-4-4-4-4-4-7-7-7-7-7-7-7-7-9-9-9-9-9-9-9-9-12-12-12-12-11-9-11-7--|

eb|-------------------------------------------------------------------|
Bb|-------------------------------------------------------------------|
Gb|-------------------------------------------------------------------|
Db|--4-4-4-4-4-4-4-4-0-0-0-0-0-0-0-0-2-2-2-2-2-2-2-2-6-6-6-6-6-6-6-6--|
Ab|--4-4-4-4-4-4-4-4-0-0-0-0-0-0-0-0-2-2-2-2-2-2-2-2-4-4-4-4-4-4-4-4--|
Db|--4-4-4-4-4-4-4-4-0-0-0-0-0-0-0-0-2-2-2-2-2-2-2-2------------------|

eb|-----------|
Bb|-----------|
Gb|-----------|
Db|--0---2----|
Ab|--0---2----|
Db|--0---2----|

Bridge:
eb|-------------------------------------------------------------------|
Bb|-------------------------------------------------------------------|
Gb|-------------------------------------------------------------------|
Db|--0-0-0-0-0-0-0-0-2-2-2-2-2-2-2-2-4-4-4-4-4-4-4-4-7-7-7-7-7-6-6-0--|
Ab|--0-0-0-0-0-0-0-0-2-2-2-2-2-2-2-2-4-4-4-4-4-4-4-4-7-7-7-7-7-4-4-0--|
Db|--0-0-0-0-0-0-0-0-2-2-2-2-2-2-2-2-4-4-4-4-4-4-4-4-7-7-7-7-7-----0--|

eb|--------------------------------------------------------------|
Bb|--------------------------------------------------------------|
Gb|--------------------------------------------------------------|
Db|--0-0-0-0-0-0-0-0-2-2-2-2-2-2-2-2-6-6-6-6-6-6-6-6-0---2---4---|
Ab|--0-0-0-0-0-0-0-0-2-2-2-2-2-2-2-2-4-4-4-4-4-4-4-4-0---2---4---|
Db|--0-0-0-0-0-0-0-0-2-2-2-2-2-2-2-2-----------------0---2---4---|
                                     * * * * *
Break:
eb|-----------------------------|
Bb|-----------------------------|
Gb|----1-2------1-2------1-2----|
Db|--4--------0--------2--------|
Ab|-----------------------------|
Db|-----------------------------|

Final Chorus:
eb|------------------------------------------------------------------|  
Bb|------------------------------------------------------------------|
Gb|------------------------------------------------------------------| 
Db|--4-4-4-4-4-4-4-4-0-0-0-0-0-0-0-0-2-2-2-2-2-2-2-2-0-0-0-0-2-2-2-2-|
Ab|--4-4-4-4-4-4-4-4-0-0-0-0-0-0-0-0-2-2-2-2-2-2-2-2-0-0-0-0-2-2-2-2-|
Db|--4-4-4-4-4-4-4-4-0-0-0-0-0-0-0-0-2-2-2-2-2-2-2-2-0-0-0-0-2-2-2-2-|

eb|-------------------------------------------------------------------------|
Bb|-------------------------------------------------------------------------|
Gb|-------------------------------------------------------------------------|
Db|--4-4-4-4-4-4-4-4-7-7-7-7-7-7-7-7-9-9-9-9-9-9-9-9-12-12-12-12-11-9-11-7--|
Ab|--4-4-4-4-4-4-4-4-7-7-7-7-7-7-7-7-9-9-9-9-9-9-9-9-12-12-12-12-11-9-11-7--|
Db|--4-4-4-4-4-4-4-4-7-7-7-7-7-7-7-7-9-9-9-9-9-9-9-9-12-12-12-12-11-9-11-7--|

eb|------------------------------------------------------------------|  
Bb|------------------------------------------------------------------|
Gb|------------------------------------------------------------------|  x2
Db|--4-4-4-4-4-4-4-4-0-0-0-0-0-0-0-0-2-2-2-2-2-2-2-2-0-0-0-0-2-2-2-2-|
Ab|--4-4-4-4-4-4-4-4-0-0-0-0-0-0-0-0-2-2-2-2-2-2-2-2-0-0-0-0-2-2-2-2-|
Db|--4-4-4-4-4-4-4-4-0-0-0-0-0-0-0-0-2-2-2-2-2-2-2-2-0-0-0-0-2-2-2-2-|

eb|-------------------------------------------------------------------|
Bb|-------------------------------------------------------------------|
Gb|-------------------------------------------------------------------|
Db|--4-4-4-4-4-4-4-4-0-0-0-0-0-0-0-0-2-2-2-2-2-2-2-2-6-6-6-6-6-6-6-6--|
Ab|--4-4-4-4-4-4-4-4-0-0-0-0-0-0-0-0-2-2-2-2-2-2-2-2-4-4-4-4-4-4-4-4--|
Db|--4-4-4-4-4-4-4-4-0-0-0-0-0-0-0-0-2-2-2-2-2-2-2-2------------------|

eb|-----------|
Bb|-----------|
Gb|-----------|
Db|--0---2----|
Ab|--0---2----|
Db|--0---2----|
Tap to rate this tab
 
# A B C D E F G H I J K L M N O P Q R S T U V W X Y Z