Song name
# A B C D E F G H I J K L M N O P Q R S T U V W X Y Z

My Darkest Days - Goodbye tab

Been listening to this band a lot lately, so of course another tab of their songs by me :)
I worked on this a lot and im pretty sure the notes are near 100% correct.
If you think i made any mistakes just comment and let me know.

Intro:

Guitar 1
eb|-----------------|
Bb|-----------------|   
Gb|-----------------|   x7
Db|-----------------|
Ab|--0-------3-3-0--|
Db|--0---3-3-----0--|
         * * * * *
eb|-----------------|
Bb|-----------------|   
Gb|-----------------|
Db|-----------------|
Ab|--0-------3-3----|
Db|--0---3-3--------|
         * * * *

Verse:

Guitar 1
eb|-----------------|
Bb|-----------------|
Gb|-----------------|  x8
Db|----------5-5----|
Ab|--0---3-3-3-3-0--|
Db|--0---3-3-----0--|
         * * * * *
eb|-------------------------------------------|
Bb|-------------------------------------------|
Gb|-------------------------------------------|
Db|--5-5-5-5-5-5-5-5-10-10-10-10-10-10-10-10--|
Ab|--5-5-5-5-5-5-5-5-10-10-10-10-10-10-10-10--|
Db|--5-5-5-5-5-5-5-5-10-10-10-10-10-10-10-10--|

eb|-----------------|
Bb|-----------------|
Gb|-----------------|  x2
Db|----------5-5----|
Ab|--0---3-3-3-3-0--|
Db|--0---3-3-----0--|
         * * * * *
eb|-------------------------------------------|
Bb|-------------------------------------------|
Gb|-------------------------------------------|
Db|--5-5-5-5-5-5-5-5-10-10-10-10-10-10-10-10--|
Ab|--5-5-5-5-5-5-5-5-10-10-10-10-10-10-10-10--|
Db|--5-5-5-5-5-5-5-5-10-10-10-10-10-10-10-10--|

Guitar 2  (comes in after the third repeat of guitar 1's part) 
eb|------------------------------------------------|   
Bb|------------------------------------------------|
Gb|------9---7----------5---7---9----------9---7---|
Db|--7--------------7------------------7-----------|
Ab|------------------------------------------------|
Db|------------------------------------------------|

Prechorus:

Guitar 1
eb|-----------------------------------------------------------------------|
Bb|----------10-----------------------------------------------------------|
Gb|--7-10-12--------------7-7s10-9--7-----------7-7s10-9---------7-10-12--|
Db|---------------------7---------------------7----------------7----------|
Ab|-----------------------------------------------------------------------|
Db|-----------------------------------------------------------------------|

Guitar 2
eb|-----------------------------------------------------------------------|
Bb|--------------3-5-6-------------------3-1--------------3-5-------------|
Gb|------------------------------------2----------------------------------|
Db|-----------------------------------------------------------------------|
Ab|-----------------------------------------------------------------------|
Db|-----------------------------------------------------------------------|

Chorus:

Both Guitars: distortion
eb|-----------------------------------------------|
Bb|-----------------------------------------------|
Gb|-----------------------------------------------|
Db|--0--------3--------7--------10--------\\\\\\--|
Ab|--0--------3--------7--------10--------\\\\\\--|
Db|--0--------3--------7--------10--------\\\\\\--|

Post Chorus:

Both Guitars: distortion
eb|-----------------|
Bb|-----------------| 
Gb|------------5-5--|  x4
Db|--0-0---3-3-5-5--|
Ab|--0-0---3-3-3-3--|
Db|--0-0---3-3------|

Repeat Verse

Repeat Chorus

Post Chorus x2
                              
Bridge:

Both Guitars
eb|--------------------------------------------|
Bb|--------------------------------------------|
Gb|--------------------------------------------|
Db|--8--------0--------8--------5----10--------|
Ab|--8--------0--------8--------5----10--------|
Db|--8--------0--------8--------5----10--------|

Break:

Guitar 1
eb|-----------------------------------------------------------------|
Bb|----------------------6--------------------6---------------------|
Gb|----------------------7---------10---------7---------10----------|
Db|--0---------3---------7---------10---------7---------10----------|
Ab|--0---------3--------------------8--------------------8----------|
Db|--0---------3----------------------------------------------------|

Guitar 2
eb|------------------------------------------------------------------|
Bb|------------------------------------------------------------------|
Gb|---------9--7------5--7-----------------9--7-----------------5----|
Db|------7---------7--------------------7--------------------7-------|
Ab|------------------------------------------------------------------|
Db|------------------------------------------------------------------|

Repeat Chorus

Repeat Post Chorus x2

Legend:
* - palm mute
\ - upward pickslide
Tap to rate this tab
# A B C D E F G H I J K L M N O P Q R S T U V W X Y Z