Song name
# A B C D E F G H I J K L M N O P Q R S T U V W X Y Z

My Darkest Days - Porn Star Dancing Acoustic tab

            My Darkest Days - Porn Star Dancing (Acoustic)

               Drop D Tuning            Half Step Down
It may not be 100% accurate, but it's pretty close. I haven't tabbed the 
Solo yet because I haven't had time. Be forgiving please, this is my first 
tab ever. :) Enjoy!

                         Tabbed By Dr Blueman




Intro

e--4-3--------------|
B------6-4-5-6------|
G---------------4---|
D-------------------|
A-------------------|
D-------------------|


Chorus                     Verse                    Bridge 

e------------------------|-----------------------|-----------------|
B------------------------|-----------------------|-----------------|
G------------------------|-----------------------|-----------------|
D---3-X-3-X-3-X-8-8-1-2-3|------3-3-1-3-1-3------|--6-6-6-6-3------|
A---3-X-3-X-3-X-8-8-1-2-3|------3-3-1-3-1-3------|--6-6-6-6-3------|
D---3-X-3-X-3-X-8-8-1-2-3|------3-3-1-3-1-3------|--4-4-4-4-1------|


Post Chorus 1A        Post Chorus 1B       Post Chorus 2

e--4-3------------|---------------------|----8----------------|
B------6-4-5-6----|---------------------|----9----------------|
G---------------4-|---------------------|----10---------------|
D-----------------|-8-8-1-2-3-----------|----8----------------|
A-----------------|-8-8-1-2-3-----------|----8----------------|
D-----------------|-8-8-1-2-3-----------|----8----------------|

Outro

e---4-3-------------------X-|
B-------6-4---------------X-|
G-----------5-------------X-|
D-3------------6--1-2-3-3-X-|
A-3------------6--1-2-3-3-X-|
D-3------------6--1-2-3-3-X-|


Set up

Intro X4
Chorus X1
Verse X8
Bridge X1
Post Chorus 1A X7
Post Chorus 1B X1
Verse X8
Bridge X1
Post Chorus 2 X4
Solo 
Chorus X1
Outro X1

I hope its all accurate.


 
Tap to rate this tab
 
# A B C D E F G H I J K L M N O P Q R S T U V W X Y Z