Song name
# A B C D E F G H I J K L M N O P Q R S T U V W X Y Z

My Darkest Days - Move Your Body tab

-------------------------------------------------------------------------------
                                   "Move Your Body" - My Darkest Days
-------------------------------------------------------------------------------
Tabbed by: Daniel Thomas (DanTheMan93)
Email: dant0430@ymail.com

Tuning: Drop C#

************************************
KEY:
| /   Slide up
| \   Slide down
| ~   Let ring
************************************

Intro:
D#|----------------------------------------------|
A#|----------------------------------------------|
F#|----------------------------------------------|
C#|-000-5-5-0-0-----3-2----000-5-5-0-0-----3-2---|
G#|-000-3-3-0-0-3-0--------000-3-3-0-0-3-0-----3-|
C#|-000-----0-0------------000-----0-0-----------| (x2)

Verse 1:
D#|----------------| (x = mute strings after slapping the them)
A#|------Slap------|
F#|----------------|
C#|-0x00x0~000x00x-| 
G#|-0x00x0~000x00x-| 
C#|-0x00x0~000x00x-| (x10)

D#|-3~------------|
A#|-3~------------|
F#|-3~------------|
C#|-5~------------|
G#|---------------|
C#|---------------|

Chorus 1:
D#|--------------------------------------------|
A#|--------------------------------------------|
F#|--------------------------------------------|
C#|-000-5-5-0-0-----3-2--000-5-5-0-0-----3-2---|
G#|-000-3-3-0-0-3-0------000-3-3-0-0-3-0-----3-|
C#|-000-----0-0----------000-----0-0-----------| (x2)

D#|----------------------------|
A#|----------------------------|
F#|-5---------5----------------|
C#|-3-5/7-00--3-5/7-0----3/5-5-|
G#|---3/5-00----3/5-0----3/5-3-|
C#|-------00--------0----3/5---| (x4)

Verse 2:
D#|----------------|
A#|------Slap------|
F#|----------------|
C#|-0x00x0~000x00x-| 
G#|-0x00x0~000x00x-| 
C#|-0x00x0~000x00x-| (x10)

D#|-3~------------|
A#|-3~------------|
F#|-3~------------|
C#|-5~------------|
G#|---------------|
C#|---------------|

Chorus 2:
D#|--------------------------------------------|
A#|--------------------------------------------|
F#|--------------------------------------------|
C#|-000-5-5-0-0-----3-2--000-5-5-0-0-----3-2---|
G#|-000-3-3-0-0-3-0------000-3-3-0-0-3-0-----3-|
C#|-000-----0-0----------000-----0-0-----------| (x2)

D#|----------------------------|
A#|----------------------------|
F#|-5---------5----------------|
C#|-3-5/7-00--3-5/7-0----3/5-5-|
G#|---3/5-00----3/5-0----3/5-3-|
C#|-------00--------0----3/5---| (x4)

Bridge:
D#|----------------|
A#|------Slap------|
F#|----------------|
C#|-0x00x0~000x00x-| 
G#|-0x00x0~000x00x-| 
C#|-0x00x0~000x00x-| (x12)

D#|-3~------------|
A#|-3~------------|
F#|-3~------------|
C#|-5~------------|
G#|---------------|
C#|---------------|

Chorus 3:
D#|--------------------------------------------|
A#|--------------------------------------------|
F#|--------------------------------------------|
C#|-000-5-5-0-0-----3-2--000-5-5-0-0-----3-2---|
G#|-000-3-3-0-0-3-0------000-3-3-0-0-3-0-----3-|
C#|-000-----0-0----------000-----0-0-----------| (x2)

D#|----------------------------|
A#|----------------------------|
F#|-5---------5----------------|
C#|-3-5/7-00--3-5/7-0----3/5-5-|
G#|---3/5-00----3/5-0----3/5-3-|
C#|-------00--------0----3/5---| (x4)
Tap to rate this tab
# A B C D E F G H I J K L M N O P Q R S T U V W X Y Z