Song name
# A B C D E F G H I J K L M N O P Q R S T U V W X Y Z

My Diet Pill - Generals Crown chords

Highlighted       Show chord diagrams
Basically it's G - Bm - D - E

E|--0----0----0----0
B|--0----3----3----0
G|--4----4----2----1
D|--5----4----4----2
A|--5----2----0----2
E|--3----X----X----0

Bridge: Bm - E - G

E|---0----0----0
B|---3----0----0
G|---4----1----4
D|---4----2----5
A|---2----2----5
E|---X----0----3


Chorus: D - E - G / D - E - Bm

E|---2----0----0
B|---3----0----0
G|---2----1----4
D|---0----2----5
A|---x----2----5
E|---X----0----3
Tap to rate this tab
# A B C D E F G H I J K L M N O P Q R S T U V W X Y Z