Song name
# A B C D E F G H I J K L M N O P Q R S T U V W X Y Z

My Diet Pill - Family tab

Intro, 1st and 2nd verse:
All my family are here... gone

E--x---x--x--x--x- x--x--x--x--x-x-x-x-x-x-x-x-x-x-x-x-|
A--0-- 0--0--0--0- 0--0--0--0--0-0-0-x-x-x-x-x-0-x-x-2-|
D-10-12-12-10-9-10-12-12-10-9--7-3-0-0-0-0-0-3-0-0-0-0-|
G--x- -x--x--x--x--x--x--x--x--x-x-x-7-7-5-4-2-x-7-7-x-|
B--x- -x--x--x--x--x--x--x--x--x-x-x-x-x-x-x-x-x-x-x-x-|
E--x- -x--x--x--x--x--x--x--x--x-x-x-x-x-x-x-x-x-x-x-x-|

All my family are here... corpse

E--x---x--x--x--x- x--x--x--x--x-x-x-x-x-x-x-x-x-x-x-x-|
A--0-- 0--0--0--0- 0--0--0--0--0-0-0-x-x-x-x-x-0-x-x-2-|
D-10-12-12-10-9-10-12-12-10-9--7-3-0-0-0-0-0-3-0-0-0-0-|
G--x- -x--x--x--x--x--x--x--x--x-x-x-7-7-5-4-2-x-7-7-x-|
B--x- -x--x--x--x--x--x--x--x--x-x-x-x-x-x-x-x-x-x-x-x-|
E--x- -x--x--x--x--x--x--x--x--x-x-x-x-x-x-x-x-x-x-x-x-|


3rd and 4th verse:

Here we go...yesterday

----------------------------------------------------|F-Dm
E--x-x-x-x-x-x-x-x-------1--x--x-x-x-x-x-x-x-x------|
A--0-0-0-0-0-0-0-0-------3--0--0-0-0-0-0-0-0-0------|
D--2-2-2-3-3-3-3-3-- x4--3--0--2-2-2-3-3-3-3-3------| x2
G--x-x-x-x-x-x-x-x-------2--2--x-x-x-x-x-x-x-x------|
B--x-x-x-x-x-x-x-x-------1--3--x-x-x-x-x-x-x-x------|
E--x-x-x-x-x-x-x-x-------1--1--x-x-x-x-x-x-x-x------|

My people...family

-----------------------------------------------------|F-Dm
E--x-x-x-x-x-x-x-x-------1--x--x-x-x-x-x-x-x-x-------|
A--0-0-0-0-0-0-0-0-------3--0--0-0-0-0-0-0-0-0-------|
D--2-2-2-3-3-3-3-3-- x4--3--0--2-2-2-3-3-3-3-3-------| x2
G--x-x-x-x-x-x-x-x-------2--2--x-x-x-x-x-x-x-x-------|
B--x-x-x-x-x-x-x-x-------1--3--x-x-x-x-x-x-x-x-------|
E--x-x-x-x-x-x-x-x-------1--1--x-x-x-x-x-x-x-x-------|

Chorus chords (4 times, with 2 quick pauses the 3rd time on the F and the Dm).

Everyone's going... i'm afraid

---F-Dm-Em7---------|Am
E--1--x--0--------x-|
A--3--0--2--------0-|
D--3--0--2-- x3---2-|
G--2--2--0--------2-|
B--1--3--3--------1-|
E--1--1--0--------0-|

Outro: arpeggio on these 3 notes

C/F (no5)
E--1------1--------1-|
A----2------3----3---|
D------3------2------|
G--x
B--x
E--x
Tap to rate this tab
# A B C D E F G H I J K L M N O P Q R S T U V W X Y Z