Song name
# A B C D E F G H I J K L M N O P Q R S T U V W X Y Z

My Dying Bride - A Cruel Taste Of Winter tab

artist: MY DYING BRIDE
song: A CRUEL TASTE OF WINTER
album:songs of darkness
 intro:

|----------------------------------------------------------------| *4
|----------------------------------------------------------------|
|----------------------------------------------------------------|
|----------------------------------------------------------------|
|--5/7-5/9-9/10--------------------------------------------------|
|--3/7-3/7-7/8---------------------------------------------------|

|-----4-------|
|-----4-------|
|-----2-------|

|----------------------------------------------------------------|*2
|----------------------------------------------------------------|
|----------------------------------------------------------------|
|----------------------------------------------------------------|
|-7---7-5-8-7-5--5-7-8-7-5--5-7-8-7-5-7-5------------------------|
|----------------------------------------------------------------|



|----------------------------------------------------------------| *4
|----------------------------------------------------------------|
|----------------------------------------------------------------|
|----------------------------------------------------------------|
|--5/7-5/9-9/10--------------------------------------------------|
|--3/7-3/7-7/8---------------------------------------------------|


|----------------------------------------------------------------|*4
|----------------------------------------------------------------|
|----------------------------------------------------------------|
|----------------------------------------------------------------|
|-7---7-5-8-7-5--5-7-8-7-5--5-7-8-7-5-7-5------------------------|
|----------------------------------------------------------------
|
|
|----------------------------------------------------------------|*7
|----------------------------------------------------------------|
|----------------------------------------------------------------|
|----------------------------------------------------------------|
|----------------------------------------------------------------|
|--9-7--7-7-11-9~~~-9-10-7-7-10-9-10-9-10-9-10-7-10-9------------|
|----------------------------------------------------------------|

|-----4-------|
|-----4-------|
|-----2-------|

|----------------------------------------------------------------|u count :P
|----------------------------------------------------------------|
|----------------------------------------------------------------|
|----------------------------------------------------------------|
|-7---7-5-8-7-5--5-7-8-7-5--5-7-8-7-5-7-5------------------------|
|----------------------------------------------------------------|

|----------------------------------------------------------------|* :P
|----------------------------------------------------------------|
|----------------------------------------------------------------|
|--5-2-2---------5-2-2---------5-2-2---------5-2-----------------|
|--3-2-2-2-1-2-1-5-2-2-2-1-2-1-5-2-2-2-1-2-1-5-2-----------------|
|--3-0-0---------3-0-0---------3-0-0---------3-0-----------------|
   * * *         * * *         * * *

|----------------------------------------------------------------| *4
|----------------------------------------------------------------|
|----------------------------------------------------------------|
|----------------------------------------------------------------|
|--5/7-5/9-9/10--------------------------------------------------|
|--3/7-3/7-7/8---------------------------------------------------|



|----------------------------------------------------------------|*4
|----------------------------------------------------------------|
|----------------------------------------------------------------|
|----------------------------------------------------------------|
|-7---7-5-8-7-5--5-7-8-7-5--5-7-8-7-5-7-5------------------------|
|----------------------------------------------------------------
|
|
|----------------------------------------------------------------|*7
|----------------------------------------------------------------|
|----------------------------------------------------------------|
|----------------------------------------------------------------|
|----------------------------------------------------------------|
|--9-7--7-7-11-9~~~-9-10-7-7-10-9-10-9-10-9-10-7-10-9------------|
|----------------------------------------------------------------|

|-----4-------|
|-----4-------|
|-----2-------|

|----------------------------------------------------------------|*:P
|----------------------------------------------------------------|
|----------------------------------------------------------------|
|--5-2-2---------5-2-2---------5-2-2---------5-2-----------------|
|--3-2-2-2-1-2-1-5-2-2-2-1-2-1-5-2-2-2-1-2-1-5-2-----------------|
|--3-0-0---------3-0-0---------3-0-0---------3-0-----------------|
   * * *         * * *         * * *
|----------------------------------------------------------------|* :P
|----------------------------------------------------------------|
|----------------------------------------------------------------|
|--5-2-2---------5-2-2---------5-2-2---------5-2-2---------------|
|--3-2-2---------3-2-2---------3-2-2---------5-2-2---------------|
|--3-0-0---------3-0-0---------3-0-0---------3-0-0---------------|
   * * *         * * *         * * *

email: lordfankiller@yahoo.com


Tap to rate this tab
 
# A B C D E F G H I J K L M N O P Q R S T U V W X Y Z