Song name
# A B C D E F G H I J K L M N O P Q R S T U V W X Y Z

My Dying Bride - For Lies I Sire tab

Band: mY dyIng BridE
Song: The lies I sire
Tabbed by:Fady Asaad
Email:fetallica@yahoo.com

Tune ur guitar: C# F# B E G# C#


Guitar I
|--------------------------------------------------|
|--------------------------------------------------|
|--------------------------------------------------|
|--------------------------------------------------|
|-----10-7-9-10-10-----------10-7-9-10-5-----------|
|-0-------------------3--0-------------------------|


|--------------------------------------------------|
|--------------------------------------------------|
|--------------------------------------------------|
|--------------------------------------------------|
|-------10-7-9-10-10/12--10/9--------10-7-9-10-5---|
|-3--0----------------------------0----------------|

Guitar II
|-15/12-12-14-15-12-----15/12-12-14-15-12----------|
|--------------------------------------------------|
|--------------------------------------------------|
|--------------------------------------------------|
|--------------------------------------------------|
|--------------------------------------------------|


|-15/12-12-14-15--15/17-------15/12-12-14-15-12----|
|--------------------------------------------------|
|--------------------------------------------------|
|--------------------------------------------------|
|--------------------------------------------------|
|--------------------------------------------------|


to be continue..........
Tap to rate this tab
# A B C D E F G H I J K L M N O P Q R S T U V W X Y Z