Song name
# A B C D E F G H I J K L M N O P Q R S T U V W X Y Z

My Dying Bride - The Fever Sea tab

                      MY DYING BRIDE

                      THE FEVER SEA

This is my third post. This song is from MDB's Light at The End of The World. It was
easy to figure out, but it's not 100% accurate. Feel free to find glitches and mail me 
judas-iscariot@live.com

The intro riff is somewhat like this:

1|--------------------------|
2|--------------------------|
3|--------------------------|
4|--------------------------|
5|--------------------------|
6|-000000002222333322222222-|
   PM----------------------|

Riff 2:

1|------------------------------------------------------|
2|------------------------------------------------------|
3|------------------------------------------------------|
4|------------------------------------------------------|
5|-5---7---8------------4-4-4-4-4-4-4-4-4-4-4-4-4-4-4-4-|
6|-3---5---6---3--5--3--2-2-2-2-2-2-2-2-2-2-2-2-2-2-2-2-|
               PM-----|


1|-------------------------------------------------------|
2|-------------------------------------------------------|
3|-------------------------------------------------------|
4|-------------------------------------------------------|
5|-555-777-888----------4-4-4-4-4-4-4-4-4-4-4-4-4-4-4-4--|
6|-333-555-666-3--5--3--2-2-2-2-2-2-2-2-2-2-2-2-2-2-2-2--|
   PM----------------------------------------------------|

Repeat intro riff

Repeat riff 2

Riff 3:

1|---------------------------------------------|
2|---------------------------------------------|
3|---------------------------------------------|
4|---------------------------------------------|
5|-3/7--7-7-9-10-9-9-9--9h10p9/10h12p10\9h10p9-|
6|---------------------------------------------|

Break

Riff 4:

This is my favourite part of the song. Aaron uses his clean superbly and riff is cool.

1|--------------------------------------------------|
2|--------------------------------------------------|
3|--------------------------------------------------|
4|-2-----2-------2---2-----4-----4-------4---4------|
5|-2-----2-------2---2-----4-----4-------4---4------|
6|-0-0-0-0-0-0-0-0-0-0-0-0-2-2-2-2-2-2-2-2-2-2-2-2--|
     PM-|  PM--|   PM  PM-|  PM-|  PM--|   PM  PM---|

Then riffs 3 and 2 repeat till the end

It's a really awesome song, you'll love to play it over and over again once you get the
of it. It's one of MDB's best and, sadly, one of the under-rated songs. Not many people
heard of it. Most people relate MDB with "The Cry of Mankind" and "A Kiss to Remember" 
those songs.
Tap to rate this tab
 
# A B C D E F G H I J K L M N O P Q R S T U V W X Y Z