Song name
# A B C D E F G H I J K L M N O P Q R S T U V W X Y Z

My Dying Bride - The Thrash Of Naked Limbs tab

-------------------------------------------------------------------------------
                  THE THRASH OF NAKED LIMBS - My Dying Bride
-------------------------------------------------------------------------------

Tuning: C# (C# F# B E G# C#)


Intro & outro:
C#|------------------------------------------------------------|-------------|
G#|------------------------------------------------------------|-------------|
E |------------------------------------------------------------|-------------|
B |---12---7---------------------------------------------------|-12-12-12-12-|
F#|---10---5-6---3---5----8-6---6-10---10-12---12---13---12~---|-10-10-10-10-|
C#|------------------------------------------------------------|-------------|
                   (x 4 as intro, x 6 as outro)


Guitar 2 during intro & outro (starts playing with the violins):
C#|------------------------------------------------------------------------|
G#|------------------------------------------------------------------------|
E |---12-12-12-12-8---12-12-12-12-7---12-12-12-12-12---12-14--14--15--14---|
B |---12-12-12-12-8---12-12-12-12-7---12-12-12-12-12---12-14--14--15--14---|
F#|---10-10-10-10-6---10-10-10-10-5---10-10-10-10-10---10-12--12--13--12---|
C#|------------------------------------------------------------------------|
PM    .. .. .. ..     .. .. .. ..     .. .. .. ..


Verse (repeat this x 2):
(first without vocals, then "Beauty is fragile and time eats at it...")
C#|----------------------------|-----------------------------|
G#|----------------------------|-----------------------------|
E |----------------------------|-----------------------------|
B |----------------------------|-----------------------11\---|
F#|---------11-----10----------|-8~---11~---10-11-10----9\---|
C#|---11-10-------------11-----|-----------------------------|
             (x 3)

C#|----------------------------|---------------------------|
G#|----------------------------|---------------------------|
E |----------------------------|---------------------------|
B |----------------------------|---------------------11\---|
F#|---------11-----10----------|-8~---11~---9-11-9----9\---|
C#|---11-10-------------11-----|---------------------------|
             (x 3)


Bridge 1:
(first without vocals, then "Sweet was her breath tasted by mine...")
C#|---------------------------------------------------------------------------|
G#|---------------------------------------------------------------------------|
E |---------------------------------------------------------------------------|
B |---2---2-2-3---2---2-2----------------2---2-2-3---2---2-2------------------|
F#|---2---2-2-3---2---2-2---/7---6-------2---2-2-3---2---2-2---/7---6---------|
C#|---0---0-0-1---0---0-0----------7-6---0---0-0-1---0---0-0----------7-8\1---| (x 8)
PM        . .         . .                    . .         . .


Break:
C#|--------|-------------------------------------|
G#|--------|-------------------------------------|
E |--------|------------------7\----------5--4---|
B |---2\---|---4--5--4--2-2-2-7\--2-2-2-2-5--4---|
F#|---2\---|---4--5--4--2-2-2-5\--2-2-2-2-3--2---|
C#|---0\---|---2--3--2--0-0-0-----0-0-0-0--------|
PM                      . . .     . . . .
                           (x 6)


Bridge 2:
(first without vocals, then "Take me anywhere...")
C#|------------------------------|
G#|------------------------------|
E |------------------------------|
B |---4~---7~---4~---2---5~--4---|
F#|---2~---5~---2~---0---3~--2---|
C#|------------------------------| (x 8)


Interlude (after this, play intro again as outro):
C#|-------------|
G#|-------------|
E |---4-----3---|
B |---4-----3---|
F#|---2-----1---|
C#|-------------|


************************************

| /   slide up
| \   slide down
| h   hammer-on
| p   pull-off
| ~   vibrato
| +   harmonic
| x   Mute note
| b   Bend
| pb  Pre-bend
| br  Bend release
| pbr Pre-bend release
| brb Bend release bend

************************************
Tap to rate this tab
 
# A B C D E F G H I J K L M N O P Q R S T U V W X Y Z