Guitaretab - guitar tabs
Song name
# A B C D E F G H I J K L M N O P Q R S T U V W X Y Z

My Dying Bride - She Is The Dark tab

Band:  MY DYING BRIDE
Album: The Light at the End of the World
Song:  She is the Dark

Transcribed by:	Chris Humeniuk
Email:  father_death_666@hotmail.com

Tuning:	1.5 steps down

Keys:
 ___ - palm mute
 / \ - slide
  x  - mute
  p  - pull off
  "  - tremelo pick
  h  - hammer on


INTRO:
(Gtr 2 - play w/volume knob)
|-------------------------|
|-------------------------|
|-------------------------|
|-(9)--------(8)----------|
|-------------------------|
|-------------------------|

(Gtr 1)
|-----------------------------|     |-----------------------------|
|-----------------------------|     |-----------------------------|
|-----------------------------|     |-----------------------------|
|-----------------------------|     |-----------------7-7-9-9-10\-|
|-5-5-5-7-7-7-8-8-5-5-7-7-8-8-|     |-5-5-5-7-7-7-8-8-5-5-7-7--8\-|
|-----------------------------| 3x  |-----------------5-5-7-7--8\-|
  ___________________________         _______________

(Gtr 2)
|--------------------------------------------------------------|
|--------------------------------------------------------------|
|--------------------------------------------------------------|
|-(12)---------------------------------------------------------|
|--------------------------------------------------------------|
|--------------------------------------------------------------|

(Gtr 1)
|-----------------------------|     |-------------------------------|
|-----------------------------|     |-------------------------------|
|-----------------------------|     |-------------------------------|
|-----------------------------|     |-----------------7-7-9-9-10\-x-|
|-5-5-5-7-7-7-8-8-5-5-7-7-8-8-|     |-5-5-5-7-7-7-8-8-5-5-7-7--8\-x-|
|-----------------------------| 3x  |-----------------5-5-7-7--8\-x-|
  ___________________________         _______________


VERSE:
(Gtr 2)
|---------------------------------------------|
|---------------------------------------------|
|---------------------------------------------|
|-(9)--------(8)------------------------------|
|-----------------------(8)--------(7)--------|
|---------------------------------------------| 2x

|----------------------------------------------|
|----------------------------------------------|
|----------------------------------------------|
|-(9)--------(12)--------(8)--------(9)--------|
|----------------------------------------------|
|----------------------------------------------| 2x


INTRO:
(Gtr 1)
|-----------------------------|     |-----------------------------|
|-----------------------------|     |-----------------------------|
|-----------------------------|     |-----------------------------|
|-----------------------------|     |-----------------7-7-9-9-10\-|
|-5-5-5-7-7-7-8-8-5-5-7-7-8-8-|     |-5-5-5-7-7-7-8-8-5-5-7-7--8\-|
|-----------------------------| 3x  |-----------------5-5-7-7--8\-|
  ___________________________         _______________

(Gtr 2)
|--------------------------------------------------------------|
|--------------------------------------------------------------|
|--------------------------------------------------------------|
|-(9)----------------------------------------------------------|
|--------------------------------------------------------------|
|--------------------------------------------------------------|

(Gtr 1)
|-----------------------------|     |-------------------------------|
|-----------------------------|     |-------------------------------|
|-----------------------------|     |-------------------------------|
|-----------------------------|     |-----------------7-7-9-9-10\-x-|
|-5-5-5-7-7-7-8-8-5-5-7-7-8-8-|     |-5-5-5-7-7-7-8-8-5-5-7-7--8\-x-|
|-----------------------------| 3x  |-----------------5-5-7-7--8\-x-|
  ___________________________         _______________


VERSE


RIFF A:

|-------------------------------------------------------------|
|-------------------------------------------------------------|
|-------------------------------------------------------------|
|-9-9-x-9-9-9-x-9-9-9-----------9-9-x-9-9-9-x-9-9-9-----------|
|-7-7-x-7-7-7-x-7-7-7-3p2-3--2--7-7-x-7-7-7-x-7-7-7-3p2-3--5--|
|-0-0-0-0-0-0-0-0-0-0-----------0-0-0-0-0-0-0-0-0-0-----------|

 -------------------------------------------------------------|
 -------------------------------------------------------------|
 -------------------------------------------------------------|
 -9-9-x-9-9-9-x-9-9-9-----------9-9-x-9-9-9-x-9-9-9-----5--4--|
 -7-7-x-7-7-7-x-7-7-7-3p2-3--2--7-7-x-7-7-7-x-7-7-7-----5--4--|
 -0-0-0-0-0-0-0-0-0-0-----------0-0-0-0-0-0-0-0-0-0-3-2-3--2--|
                                                    ___

 -------------------------------------------------------------|
 -------------------------------------------------------------|
 -------------------------------------------------------------|
 -9-9-x-9-9-9-x-9-9-9-----------9-9-x-9-9-9-x-9-9-9-----------|
 -7-7-x-7-7-7-x-7-7-7-3p2-3--2--7-7-x-7-7-7-x-7-7-7-3p2-3--5--|
 -0-0-0-0-0-0-0-0-0-0-----------0-0-0-0-0-0-0-0-0-0-----------|

 -------------------------------------------------------------|
 -------------------------------------------------------------|
 -------------------------------------------------------------|
 -9-9-x-9-9-9-x-9-9-9-----------9-9-x-9-9-9-x-9-9-9-----------|
 -7-7-x-7-7-7-x-7-7-7-3p2-3--2--7-7-x-7-7-7-x-7-7-7-----------|
 -0-0-0-0-0-0-0-0-0-0-----------0-0-0-0-0-0-0-0-0-0-10"\------|
                                                    __________

|-------------------------------------------------------------|
|-------------------------------------------------------------|
|-------------------------------------------------------------|
|---------------------5\4-5--4----------------------5\4-5--7--|
|-2-2-2-2-2-2-2-2-2-2-3\2-3--2--2-2-2-2-2-2-2-2-2-2-3\2-3--5--|
|-0-0-0-0-0-0-0-0-0-0-----------0-0-0-0-0-0-0-0-0-0-----------|
  ___________________           ___________________

 -------------------------------------------------------------|
 -------------------------------------------------------------|
 -------------------------------------------------------------|
 ---------------------5\4-5--4--------------------------5--4--|
 -2-2-2-2-2-2-2-2-2-2-3\2-3--2--2-2-2-2-2-2-2-2-2-2-----5--4--|
 -0-0-0-0-0-0-0-0-0-0-----------0-0-0-0-0-0-0-0-0-0-3-2-3--2--| 4x
  ___________________           _______________________


RIFF Ba:
(Gtr 1)
|-----------------------------------------|
|-----------------------------------------|
|-----------------------------------------|
|-2----5--4-------------------------------|
|----------------3------5--2---2h3p2-0----|
|-----------------------------------------|

 -----------------------------------------------|
 -----------------------------------------------|
 -----------------------------------------------|
 -2----5--4h5p4h5/7-----------------------------|
 ------------------------3----5--2---2h3p2-0----|
 -----------------------------------------------| 3x

(Gtr 2)
|--------------------------------------------------------------------------|
|--------------------------------------------------------------------------|
|--------------------------------------------------------------------------|
|-/10--9--7--9--7h9------7-7h9--9/10----10----10/12--10--9h10p9-12-10-9-7--|
|--------------------------------------------------------------------------|
|--------------------------------------------------------------------------|

 -----------------------------------------------------------------------|
 -----------------------------------------------------------------------|
 -----------------------------------------------------------------------|
 --7-7h9-9-9-9--7-7h9p7/10~---\5----5--4-----------7h9----9-7-7h9--10---|
 -----------------------------------------7--3--5-----------------------|
 -----------------------------------------------------------------------|
[ Tab from: http://www.guitaretab.com/m/my-dying-bride/244847.html ]
 ------------------------------------------------------------------------------|
 ------------------------------------------------------------------------------|
 ------------------------------------------------------------------------------|
 -10----10/12--10-9--9h10p9-7---7-7h9---7-7h9p7/10~---\5----5--4---4h5p4-2-----|
 ---------------------------------------------------------------------------3--|
 ------------------------------------------------------------------------------|

 -------------------------------------------------------------------------|
 -------------------------------------------------------------------------|
 -------------------------------------------------------------------------|
 -2-----------------------------------------------------------------------|
 -------------------------------------------------------------------------|
 -------------------------------------------------------------------------|


RIFF C:

|-----------------------------------------------|
|-----------------------------------------------|
|-----------------------------------------------|
|-9-----9-----9-----9-----9-----9-----9-----9---|
|-7-----7-----7-----7-----7-----7-----7-----7---|
|-0-0-0-0-0-0-0-0-0-0-0-0-8-8-8-8-8-8-8-8-8-8-8-|
    ___   ___   ___   ___   ___   ___   ___   _

 -----------------------------------------------------|
 -----------------------------------------------------|
 -----------------------------------------------------|
 ---0-----0-----0-----0-----7-----7-------------------|
 ---5-----5-----5-----5-----7-----7-----2h3p2---------|
 -7-7-7-7-7-7-7-7-7-7-7-7-5-5-5-5-5-5-5-------3-5-3-0-| 2x
  _   ___   ___   ___   ___   ___   ___       _______

(Gtr 1)
|-----------------------------------------------|
|-----------------------------------------------|
|-----------------------------------------------|
|-9-----9-----9-----9-----9-----9-----9-----9---|
|-7-----7-----7-----7-----7-----7-----7-----7---|
|-0-0-0-0-0-0-0-0-0-0-0-0-8-8-8-8-8-8-8-8-8-8-8-|
    ___   ___   ___   ___   ___   ___   ___   _

 -----------------------------------------------------|
 -----------------------------------------------------|
 -----------------------------------------------------|
 ---0-----0-----0-----0-----7-----7-------------------|
 ---5-----5-----5-----5-----7-----7-----2h3p2---------|
 -7-7-7-7-7-7-7-7-7-7-7-7-5-5-5-5-5-5-5-------3-5-3-0-| 6x
  _   ___   ___   ___   ___   ___   ___       _______

(Gtr 2)
|--------------------------------------------------|
|--------------------------------------------------|
|--------------------------------------------------|
|-9-----9-----9-----9------------------------------|
|-7-----7-----7-----7-----7"----9"----10"----9"----|
|-0-0-0-0-0-0-0-0-0-0-0-0--------------------------|
    ___   ___   ___   ___

 ---------------------------------------------------------|
 ---------------------------------------------------------|
 ---------------------------------------------------------|
 -0-----0-----0-----0-------------------------------------|
 -5-----5-----5-----5-----10"---9"---7"---10"---9"---7"---|
 -7-7-7-7-7-7-7-7-7-7-7-5---------------------------------|
    ___   ___   ___   ___

 ---------------------------------------------|
 ---------------------------------------------|
 ---------------------------------------------|
 ---9-----9-----4"---5"---7"---5"---4"--------|
 ---7-----7------------------------------7"---|
 -0-0-0-0-0-0-0-------------------------------|
  _   ___   ___

 ----------------------------------------|
 ----------------------------------------|
 ----------------------------------------|
 ---0-----0-----7"----9"----10"----9"----|
 ---5-----5------------------------------|
 -7-7-7-7-7-7-5--------------------------| 3x
  _   ___   ___


RIFF A


RIFF Bb:
(Gtr 1)
|-----------------------------------------|
|-----------------------------------------|
|-----------------------------------------|
|-2----5--4-------------------------------|
|----------------3------5--2---2h3p2-0----|
|-----------------------------------------|

 -----------------------------------------------|
 -----------------------------------------------|
 -----------------------------------------------|
 -2----5--4h5p4h5/7-----------------------------|
 ------------------------3----5--2---2h3p2-0----|
 -----------------------------------------------| 2x

(Gtr 2)
|---------------------------------------------------------------------------|
|---------------------------------------------------------------------------|
|---------------------------------------------------------------------------|
|-7h9-9-9---9-7h9-9/10----10----10/12--10--9h10p9-12-10-9-7-10-9-7--7-7h9-9-|
|---------------------------------------------------------------------------|
|---------------------------------------------------------------------------|

 ----------------------------------------|
 ----------------------------------------|
 ----------------------------------------|
 -9-9---7h9p7/10~---\5----5--4-----------|
 -------------------------------7--3--5--|
 ----------------------------------------|

|-----------------------------------------|
|-----------------------------------------|
|-----------------------------------------|
|-2----5--4-------------------------------|
|----------------3------5--2---2h3p2-0----|
|-----------------------------------------|

 -----------------------------------------------|
 -----------------------------------------------|
 -----------------------------------------------|
 -2----5--4h5p4h5/7-----------------------------|
 ------------------------3----5--2---2h3p2-0----|
 -----------------------------------------------|


OUTRO:
(Gtr 1)
|-----------------------------------------------|
|-----------------------------------------------|
|-----------------------------------------------|
|-9-----9-----9-----9-----9-----9-----9-----9---|
|-7-----7-----7-----7-----7-----7-----7-----7---|
|-0-0-0-0-0-0-0-0-0-0-0-0-8-8-8-8-8-8-8-8-8-8-8-|
    ___   ___   ___   ___   ___   ___   ___   _

 -----------------------------------------------------|
 -----------------------------------------------------|
 -----------------------------------------------------|
 ---0-----0-----0-----0-----7-----7-------------------|
 ---5-----5-----5-----5-----7-----7-----2h3p2---------|
 -7-7-7-7-7-7-7-7-7-7-7-7-5-5-5-5-5-5-5-------3-5-3-0-| 6x
  _   ___   ___   ___   ___   ___   ___       _______

(Gtr 2)
|--------------------------------------------------|
|--------------------------------------------------|
|--------------------------------------------------|
|-9-----9-----9-----9------------------------------|
|-7-----7-----7-----7-----7"----9"----10"----9"----|
|-0-0-0-0-0-0-0-0-0-0-0-0--------------------------|
    ___   ___   ___   ___

 ---------------------------------------------------------|
 ---------------------------------------------------------|
 ---------------------------------------------------------|
 -0-----0-----0-----0-------------------------------------|
 -5-----5-----5-----5-----10"---9"---7"---10"---9"---7"---|
 -7-7-7-7-7-7-7-7-7-7-7-5---------------------------------|
    ___   ___   ___   ___

 ---------------------------------------------|
 ---------------------------------------------|
 ---------------------------------------------|
 ---9-----9-----4"---5"---7"---5"---4"--------|
 ---7-----7------------------------------7"---|
 -0-0-0-0-0-0-0-------------------------------|
  _   ___   ___

 ----------------------------------------|
 ----------------------------------------|
 ----------------------------------------|
 ---0-----0-----7"----9"----10"----9"----|
 ---5-----5------------------------------|
 -7-7-7-7-7-7-5--------------------------| 3x
  _   ___   ___

|---------------|
|---------------|
|---------------|
|-9-----9-----9-|
|-7-----7-----7-|
|-0-0-0-0-0-0-0-|
    ___   ___
Related for She Is The Dark tab
She Is The Dark chords by My Dying Bride