Song name
# A B C D E F G H I J K L M N O P Q R S T U V W X Y Z

My Dying Bride - My Wine In Silence tab

Email me at Ghoatet@live.com if you have any comments, questions, or issues. Especially 
you want to request that I tab another MDB song.


Tuning= C#/Db standard

C#/Db
G#/Ab
E
B
F#/Gb
C#/Db


*Author's Note*
I was getting really tired at the lack of accurate MDB tabs people were posting so I 
to post mine. As Hamish said on the MDB forum, every song except A Doomed Lover, One of 
Daughter's, and The Blue Lotus are in C# tuning. The three aforementioned are in drop B.

P.S. The tab is 100% accurate. Just listen to the song.

Intro
Guitar 1(Riff1):

|---------------------------------------------------|
|---------------------------------------------------|
|---------------------------------------------------|
|-5-5-5-2------2----2-------------------------------|
|-3-3-2-0-----0-0---2-------------------------------|
|------------3---3--0-------------------------------|


Guitar 2(Riff1):

|---12---12---12---12---12---12---12---12-----------|
|---------------------------------------------------|
|-9-----9----9----9----9----9----9----9-------------|
|---------------------------------------------------|
|---------------------------------------------------|
|---------------------------------------------------|

(guitar 2 continued)

|---10---10---10---10---10---10---10---10-----------|
|---------------------------------------------------|
|-7-----7----7----7----7----7----7----7-------------|
|---------------------------------------------------|
|---------------------------------------------------|
|---------------------------------------------------|

=============================================================================

Verse 1
Guitar 1(Riff 2):
                                Bridge to Riff 3
|--------------------------------|-------------------|
|--------------------------------|-------------------|
|-2-2-2-2-2-2-0-2----------------|-2-2-2-2-2-2-0-----|
|--------------------------------|-------------------|
|--------------------------------|-------------------|
|--------------------------------|-------------------|

*Guitar 2 continues Riff 1*
=============================================================================

Both Guitars(Riff 3):
                                                Bridge to Riff 1
|-----------------------------------------------|-----|
|-----------------------------------------------|-----|
|-----------------------------------------------|-----|
|-----------------------------------------------|-----|
|--------------6\7-6-6-6-3-3-3-2-2-2-2-2-1-1-1--|-----|
|--0-0-0-2-3-3--------------------3---------2-2-|--0--|

=============================================================================

Both Guitars(The same as Guitar 1, Riff 1):
|---------------------------------------------------|
|---------------------------------------------------|
|---------------------------------------------------|
|-5-5-5-2------2----2-------------------------------|
|-3-3-2-0-----0-0---2-------------------------------|
|------------3---3--0-------------------------------|

=============================================================================

Both Guitars(Riff 3):
                                                 Bridge to Riff 1
|-----------------------------------------------|-----|
|-----------------------------------------------|-----|
|-----------------------------------------------|-----|
|-----------------------------------------------|-----|
|--------------6\7-6-6-6-3-3-3-2-2-2-2-2-1-1-1--|-----|
|--0-0-0-2-3-3--------------------3---------2-2-|--0--|

=============================================================================

Both Guitars(The same as Guitar 1, Riff 1):

|---------------------------------------------------|
|---------------------------------------------------|
|---------------------------------------------------|
|-5-5-5-2------2----2-------------------------------|
|-3-3-2-0-----0-0---2-------------------------------|
|------------3---3--0-------------------------------|
Tap to rate this tab
 
# A B C D E F G H I J K L M N O P Q R S T U V W X Y Z